Sound will begin in 5 seconds

Mission in the Rain

Chords
01234567891011121314151617181920212223
E
B
G
D
A
E
B
0 1 2 3 4 5 6 7 8 9 10 11 12 13 14 15 16 17 18 19 20 21 22 23
Song Science #1: How Pros Use 6 Chords to Write Hit Songs
(/) Slide Up  (\) Slide Down  (h) Hammer On  (p) Pull Off  (b) Bend (r) Release (v) Vibrato

Stave 1:

E|--------------------------------------------------------------------------|-
B|-------------9v----10-12-12----12b14r12-9-10v-----------------------------|-
G|-7/9v----8/9-------------------------------------9-11----9--------7-6-----|-
D|-----------------------------------------------------------11-9-7-----9-7-|-
A|--------------------------------------------------------------------------|-
E|--------------------------------------------------------------------------|-

Stave 2:

E|-----------------------------------------------------------------------|-
B|-----------------------------------------------------------------------|-
G|-----------7---7-9-------------9-11------------------------------------|-
D|-7/9v-v------9-----9v----10/11---------11-9-7-7h9-7\6------6v-6v-7-6-7-|-
A|------------------------------------------------------7----------------|-
E|-----------------------------------------------------------------------|-

Stave 3:

E|-----------------12v----10-12p10-9b10----12-------------------12b14-------|-
B|--------------------------------------------12b14r12-12-10----------12b14-|-
G|---------------9----------------------------------------------------------|-
D|-9v----9-11-12------------------------------------------------------------|-
A|--------------------------------------------------------------------------|-
E|--------------------------------------------------------------------------|-

Stave 4:

E|-------------------------------------------------------------------------|-|----------------|-
B|-14r12v-v----10----9-10v--------------------------10----------10---------|-|----------------|-
G|----------------------------9-11-9-------------------11----11----11----9-|-|---------9-11p9-|-
D|-----------------------------------12-11-9----7/9-------12----------12---|-|-9-11-12--------|-
A|-------------------------------------------------------------------------|-|----------------|-
E|-------------------------------------------------------------------------|-|----------------|-

Stave 5:

E|----------------------------------------|-
B|-9--------------------------------------|-
G|-9--------------------------------------|-
D|-9----9-7-6-7-7-7v----6-7----7-6----7-9-|-
A|----------------------------------------|-
E|----------------------------------------|-

Stave 6:

E|-------------------14----------------------------------------|-
B|----------------------15---------------------9---7---5-------|-
G|-------------------------14----------------------------------|-
D|-11----12----14-------------16-14-12----11\9---7---6---7-7/9-|-
A|-------------------------------------------------------------|-
E|-------------------------------------------------------------|-

Stave 7:

E|---------------------------------------------------------------------|-
B|-----9----10----12----14-14v----14-14-12-------12--------------------|-
G|-----------------------------------------14-------14-13-11v----------|-
D|-7/9--------------------------------------------------------12\9-7-6-|-
A|---------------------------------------------------------------------|-
E|---------------------------------------------------------------------|-

Stave 8:

E|----------------------------------------------------|-
B|---------7---7/9----7/9-7---7-----------7-10-9v-v-v-|-
G|-------7---7--------------9-----------7-------------|-
D|-7/9-9------------------------------7---------------|-
A|----------------------------------------------------|-
E|----------------------------------------------------|-

Stave 9:

E|--------------------|-------------------------------------------------------------------------------------------|-
B|--------------------|-----------------------------------------------------------9-10----10-12b14-14-14r12-12-10-|-
G|--------------------|-9----7-7/9----------------------------9-9----9-11-9----11---------------------------------|-
D|----------9-11-9-11-|------------12----------12----12-11-12-----------------------------------------------------|-
A|-12-11-12-----------|---------------12\11-12--------------------------------------------------------------------|-
E|--------------------|-------------------------------------------------------------------------------------------|-

Stave 10:

E|----------------------------------14b15-15r14-14\12----------------------|-
B|----15-------------14-15----15-17----------------------------15-------17-|-
G|-16-------16-14-16-------------------------------------16-14----16-14----|-
D|-------------------------------------------------------------------------|-
A|-------------------------------------------------------------------------|-
E|-------------------------------------------------------------------------|-

Stave 11:

E|-----------------------------------------------------------------------14-------14-17----17-19b21-21r19p18p17v-|-
B|-----------------------------------------------------------14----15-17-------17--------------------------------|-
G|-----------------------13-------------13-14-13-14----14-16-----------------------------------------------------|-
D|-16\14v----14-14-16-14-------16-14-16--------------------------------------------------------------------------|-
A|---------------------------------------------------------------------------------------------------------------|-
E|---------------------------------------------------------------------------------------------------------------|-

Stave 12:

E|-17-19v-19-19-19-19-19-17-17-17-17-17-17-16-16-16-16-16-16-17-17-17-17-17-17-19-19-19-19-19-19-
B|-----------------------------------------------------------------------------------------------
G|-----------------------------------------------------------------------------------------------
D|-----------------------------------------------------------------------------------------------
A|-----------------------------------------------------------------------------------------------
E|-----------------------------------------------------------------------------------------------

Stave 13:

E|-----------------------------------------------------
B|-17-19-17----15b17-15----17-14-----------12-10-9-----
G|-------------------------------16v-------13-11-9-----
D|-----------------------------------------14-12-9-----
A|---------------------------------------------------7-
E|-------------------------------------------------7---

Stave 14:

E|---------7----------9-------------------------------|-|-
B|-------7----------9---------10---------------10-8-7-|-|-
G|-----7----------9--------11-------11----9----9--7-7-|-|-
D|-7/9-------9/11-------12-------12------------11-9-7-|-|-
A|----------------------------------------------------|-|-
E|----------------------------------------------------|-|-

Stave 15:

E|------------------10----10-10----12-------16-17v-v-v-|-
B|-----7--------9---10----10-10----12------------------|-
G|-------7--------9-11----11-11----13------------------|-
D|-7/9-----9/11--------------------14------------------|-
A|-----------------------------------------------------|-
E|-----------------------------------------------------|-

Stave 16:

E|-19-19-19-19-19-19\17-17-17-17-17-17/16-16-16-16-16\14----------------------------------------------------|-
B|-------------------------------------------------------15-15-15-15-17-------14-------------------14-17-15-|-
G|-------------------------------------------------------------------------16----16-14----16-14-16----------|-
D|----------------------------------------------------------------------------------------------------------|-
A|----------------------------------------------------------------------------------------------------------|-
E|----------------------------------------------------------------------------------------------------------|-

Stave 17:

E|-----------------------------------------------------------------------------|-
B|----------15-17p15----17b19-15-17----------------14--------------------------|-
G|-------16----------16----------------14p13h14/16-------16-14-14--------------|-
D|----------------------------------------------------------------16-16b18-14v-|-
A|-12/14-----------------------------------------------------------------------|-
E|-----------------------------------------------------------------------------|-

Stave 18:

E|----------------------------------------------------------------|-
B|----------------------------------------------------------------|-
G|----------------------------------------------------------------|-
D|----------------------------------------------------------------|-
A|----------------------------------------------------------------|-
E|-16-14-16----17-16-17----16-14-16----17-16-17-14/16-14-16-14-16-|-

Stave 19:

E|-----------------------------------------------------------------------------------------------12-----------------------------|-
B|-------------------------------12-14----12-14-15----14v-14-12-14----15-14-15p14-15-14----15-14-------15-14-15-14-15-14-12-----|-
G|----13-13----------13-13----14--------------------------------------------------------------------------------------------14v-|-
D|-14-------14\12/14------------------------------------------------------------------------------------------------------------|-
A|------------------------------------------------------------------------------------------------------------------------------|-
E|------------------------------------------------------------------------------------------------------------------------------|-

Stave 20:

E|----------------------------------------------------------------------------------------------|-
B|----------------------------------------------12----------------------------------------10-12-|-
G|----------11-13b14----14p13-11-14-13/14----14b---16r14-14v----14-13-14----14v-14v-13----11-13-|-
D|-11/12-14-------------------------------------------------------------------------------12-14-|-
A|----------------------------------------------------------------------------------------------|-
E|----------------------------------------------------------------------------------------------|-

Stave 21:

E|--------------------------------------------------------------------------------------------------
B|--------------------------------------------------------------------------------------------------
G|-------11----------13-------------------14-16/18-18----16-16-16-14-14-14----16-16-16----19-19-19v-
D|----------12----------14-------16----16-----------------------------------------------------------
A|-13/14-------15/16-------16/17----17--------------------------------------------------------------
E|--------------------------------------------------------------------------------------------------

Stave 22:

E|-------------------------------------14-17v-v-|-
B|----------------------15p15-17p15-17----------|-
G|-16p14-16p14-16/18p16-------------------------|-
D|----------------------------------------------|-
A|----------------------------------------------|-
E|----------------------------------------------|-

Stave 23:

E|-19-19-19-19-19-17-17-17-17-17-16-16-16-16-16-14-14-14-14-14-------------------------------------------|-
B|-------------------------------------------------------------17\15----14-15-14-17-15-14-15-14-15-14----|-
G|----------------------------------------------------------------------------------------------------16-|-
D|-------------------------------------------------------------------------------------------------------|-
A|-------------------------------------------------------------------------------------------------------|-
E|-------------------------------------------------------------------------------------------------------|-

Stave 24:

E|----------------------------------------------------------------------------------------------16-16v-|--------
B|-------------------------------------------------------------14-14----14-15----15-17-15----17--------|-9----9-
G|-------------------------14-16-14----16-14-16-14-13----14/16-----------------------------------------|-9-11-9-
D|----------14----14-16--------------------------------------------------------------------------------|-9-12-9-
A|-17-16-17----17--------------------------------------------------------------------------------------|--------
E|-----------------------------------------------------------------------------------------------------|--------

http://www.guitartabcreator.com
Guitar Tab Creator is intended to store guitar tab created through the tool. It currently does not support in-line text editing. Any text you place in here will be lost. If you need to comment on your tab, please use the "Tab Notes" section located below.