Sound will begin in 5 seconds

It's Too Late She's Gone

01234567891011121314151617181920212223
E
B
G
D
A
E
B
0 1 2 3 4 5 6 7 8 9 10 11 12 13 14 15 16 17 18 19 20 21 22 23
Song Science #1: How Pros Use 6 Chords to Write Hit Songs
(/) Slide Up  (\) Slide Down  (h) Hammer On  (p) Pull Off  (b) Bend (r) Release (v) Vibrato

Stave 1:

E|--11b12v-----11v--12--|--------------------------------------------------------------------------------------------|--
B|----------------------|----------------------------12b13--12b14-----------12b14b14--12p10--12--10v----------7/10v--|--
G|----------------------|--r11v--11--9v-----9--9--9-------------------9--7-------------------------------9\7---------|--
D|----------------------|--------------------------------------------------------------------------------------------|--
A|----------------------|--------------------------------------------------------------------------------------------|--
E|----------------------|--------------------------------------------------------------------------------------------|--

Stave 2:

E|-----r14--12--------------------------------------------------------------------------|--
B|--------------14--12--------------------9---------------------------------------------|--
G|-------------------------r13-----11b13-----13r11--9v-----11b13---------11b13------9v--|--
D|-------------------------------------------------------------------11---------11------|--
A|--------------------------------------------------------------------------------------|--
E|--------------------------------------------------------------------------------------|--

Stave 3:

E|-------------------------------------------|-------------------14-----------------------------------|--
B|-----------14b-----------------------------|--12b14-----14b16------16r14-----12--14p12--12------12--|--
G|--9--9--9--------13--11--9-----------------|------------------------------------------------13------|--
D|----------------------------11p10p9\7--6v--|--------------------------------------------------------|--
A|-------------------------------------------|--------------------------------------------------------|--
E|-------------------------------------------|--------------------------------------------------------|--

Stave 4:

E|------12--14-----12---------------------------------------------------------------------------------------|--
B|--14-----------------14--12-------------12------------------------12v------------12------9----------------|--
G|--------------------------------14--13---------13--14--13--11--9----------11b13------13-----13r11--9v--v--|--
D|----------------------------------------------------------------------------------------------------------|--
A|----------------------------------------------------------------------------------------------------------|--
E|----------------------------------------------------------------------------------------------------------|--

http://www.guitartabcreator.com
Guitar Tab Creator is intended to store guitar tab created through the tool. It currently does not support in-line text editing. Any text you place in here will be lost. If you need to comment on your tab, please use the "Tab Notes" section located below.