Sound will begin in 5 seconds

China Cat Europe 72 Intro

01234567891011121314151617181920212223
E
B
G
D
A
E
B
0 1 2 3 4 5 6 7 8 9 10 11 12 13 14 15 16 17 18 19 20 21 22 23
Song Science #1: How Pros Use 6 Chords to Write Hit Songs
(/) Slide Up  (\) Slide Down  (h) Hammer On  (p) Pull Off  (b) Bend (r) Release (v) Vibrato

Stave 1:

E|----------------------------------|-----------------------------------|--
B|----------------------------------|-----------------------------------|--
G|----------------------------------|-----------------------------------|--
D|--------------5----------3-----5--|-----------5----------3-----3------|--
A|--------------------3h5-----3-----|-----------------3h5-----5-----5v--|--
E|-----3----------------------------|--3-----3--------------------------|--

Stave 2:

E|-------------------------------------|------------------------------------|--
B|-------------------------------------|------------------------------------|--
G|-------------------------------------|------------------------------------|--
D|--------------5----------3-----------|-----------5----------3----------3--|--
A|--------------------3h5-----5-----5--|-----------------3h5--------3h5-----|--
E|-----3-----3-------------------------|--3---------------------------------|--

Stave 3:

E|----------------------------------------------|-------------------------------------------|--
B|----------------------------------------------|-------------------------------------------|--
G|----------------------------------------------|-------------------------------------------|--
D|--------------5----------3--------5-----5--5--|-----------5----------3-----------3--------|--
A|--------------------3h5--------0--------------|-----------------3h5--------3-----------5--|--
E|-----3----------------------------------------|--3----------------------------------------|--

Stave 4:

E|--------------------------------------------------------|------------------------------------13-------------15h17--|--
B|---------12-----13p12-----------------12h13--15-----15--|------12-----13p12--------------13-------------15---------|--
G|-----------------------14--12---------------------------|--------------------14--12--14-------------16-------------|--
D|--12---------------------------12-----------------------|--12------------------------------------------------------|--
A|--------------------------------------------------------|----------------------------------------------------------|--
E|--------------------------------------------------------|----------------------------------------------------------|--

Stave 5:

E|-----------------------------------------------------|------------------------------------------------------------|---
B|-----------------------------------------------------|------------------------------------------------------------|--\
G|-----------------------------------------------------|----------------------------------10-------------12h14v--v--|---
D|---------9-----10p9-----------------9h10--12-----12--|------9-----10p9--------------10-------------12-------------|---
A|---------------------12--10--------------------------|--10--------------12--10--12----------12/14-----------------|---
E|--10-------------------------10----------------------|------------------------------------------------------------|---

http://www.guitartabcreator.com
Guitar Tab Creator is intended to store guitar tab created through the tool. It currently does not support in-line text editing. Any text you place in here will be lost. If you need to comment on your tab, please use the "Tab Notes" section located below.