Sound will begin in 5 seconds

interlude106

Chords
01234567891011121314151617181920212223
E
B
G
D
A
E
B
0 1 2 3 4 5 6 7 8 9 10 11 12 13 14 15 16 17 18 19 20 21 22 23
Song Science #1: How Pros Use 6 Chords to Write Hit Songs
(/) Slide Up  (\) Slide Down  (h) Hammer On  (p) Pull Off  (b) Bend (r) Release (v) Vibrato

Stave 1:

E|-----------5-----------------------2-----------5-----------------------2--
B|--------------5\2h3p2-----------3-----------------5\2h3p2-----------3-----
G|--------7--------------------0--------------7--------------------0--------
D|-----7--------------------2--------------7--------------------2-----------
A|--0--------------------2--------------0--------------------2--------------
E|--------------------------------------------------------------------------

Stave 2:

E|---------------------------------------------------------------------5--
B|---------------------------------------------------------------------6--
G|----------3h5p3-------------7p5-----------------5p3---------------7--7--
D|-------6---------6-------5-------8p5-------3h6-------6p3-------5-----5--
A|--2/4---------------4/6---------------6\4-----------------4/6--------6--
E|------------------------------------------------------------------------

Stave 3:

E|-----------5-----------------------2-----------5-----------------------2--------
B|--------------5\2h3p2-----------3-----------------5\2h3p2-----------3-----3-----
G|--------7--------------------0--------------7--------------------0-----------0--
D|-----7--------------------2--------------7--------------------2-----------------
A|--0--------------------2--------------0--------------------2--------------------
E|--------------------------------------------------------------------------------

Stave 4:

E|-----------5-----------------------------------------------------------------2--
B|--------------5\2h3p2--------------------------------------------------4-----4--
G|--------7-----------------------7-----------6-----------5-----------4-----4--3--
D|-----7-----------------------5-----------4-----------3-----------2-----------4--
A|--0-----------------------7-----------6-----------5-----------4--------------2--
E|-----------------------7-----------6-----------5-----------4-----------------2--

http://www.guitartabcreator.com
Guitar Tab Creator is intended to store guitar tab created through the tool. It currently does not support in-line text editing. Any text you place in here will be lost. If you need to comment on your tab, please use the "Tab Notes" section located below.