Sound will begin in 5 seconds

my1

Chords
01234567891011121314151617181920212223
E
B
G
D
A
E
B
0 1 2 3 4 5 6 7 8 9 10 11 12 13 14 15 16 17 18 19 20 21 22 23
Top Courses in Music 160x600
(/) Slide Up  (\) Slide Down  (h) Hammer On  (p) Pull Off  (b) Bend (r) Release (v) Vibrato

Stave 1:

E|--------------------------------------------------------------------------------------------
B|-----------2--------------3--4--2-----1--2--1--------------------------1--2--1--------------
G|-----3--3--3--3--3--2--3--------3-----------2--1--2-----------------------------3--3--3--3--
D|--3--3-----3--4--4--3--4--------3--3--------3--------3--3--4--3--2--3--------------3--4--3--
A|-----1-----------------------------1--------------------------------------------------------
E|--------------------------------------------------------------------------------------------

Stave 2:

E|---------------------------------------------------------------------------------------
B|---------------------------------------------------------------------------------------
G|-----------------------------------------------------------------6h7/10--7h8--7--------
D|-----5-----5--7-----5--------6--8--6h8p6-----6-----6-------5--8------------------8--5--
A|--8-----8--------8-----7--9---------------7-----8-----7/8------------------------------
E|---------------------------------------------------------------------------------------

Stave 3:

E|------------------------------------------------------------------6-------------------4--------
B|--6--------4--------3--------3--------3--1h3p1-----1-----------------9--8--4-------------7--6--
G|--3-----3--------3--------3--------3------------4--3--2--------7--------6-----6--3h4--------4--
D|--5--4--------3--------2--------2---------------3--2--1--------6-------------------------------
A|-----------------------------------------------------------------------------------------------
E|-----------------------------------------------------------------------------------------------

Stave 4:

E|-------------------------------------------------------------------------------------8--10--11--
B|---------9--------------------------------------------------------------------8--11-------------
G|--9--10-----10--8--10--8--7-----7--8-----7--8------------------------------8--------------------
D|-----------------------------8--------8--------8-----6--8--------------10-----------------------
A|--------------------------------------------------8--------6--5---------------------------------
E|------------------------------------------------------------------------------------------------

Stave 5:

E|-----------------9--11--13--11----------------------------------------------6----------12--13--
B|--10--11--8--11-----------------14--11-----------------------------6--6--8-----13--15----------
G|--10--10--------------------------------13--10--8--10--8-----6--7------------------------------
D|--10--9---------------------------------------------------8------------------------------------
A|-----------------------------------------------------------------------------------------------
E|-----------------------------------------------------------------------------------------------

Stave 6:

E|--11--13--9--10--------------------------------6-----6---------------------------------
B|-----------------10-------------------------------------8--9--8------8------8--11--10--
G|---------------------10--9--8--10--8-----6--7-----7--------------10-----10-----10--9---
D|--------------------------------------8----------------------------------------9---8---
A|---------------------------------------------------------------------------------------
E|---------------------------------------------------------------------------------------

http://www.guitartabcreator.com
Guitar Tab Creator is intended to store guitar tab created through the tool. It currently does not support in-line text editing. Any text you place in here will be lost. If you need to comment on your tab, please use the "Tab Notes" section located below.