Sound will begin in 5 seconds

Siegel Middle Tab 2

Chords
01234567891011121314151617181920212223
E
B
G
D
A
E
B
0 1 2 3 4 5 6 7 8 9 10 11 12 13 14 15 16 17 18 19 20 21 22 23
Song Science #1: How Pros Use 6 Chords to Write Hit Songs
(/) Slide Up  (\) Slide Down  (h) Hammer On  (p) Pull Off  (b) Bend (r) Release (v) Vibrato

Stave 1:

E|-----0--1--3--1--0-----|-----------------------|--|------------------|-------------------------|--|--
B|--3-----------------3--|--3--2--3--5--3--2-----|--|------------------|-------------------------|--|--
G|-----------------------|-----------------------|--|------------------|-------------------------|--|--
D|-----------------------|-----------------------|--|--12--12--10--12--|-------------------------|--|--
A|-----------------------|-----------------------|--|------------------|--12--11--10------8v-----|--|--
E|-----------------------|-----------------------|--|------------------|--------------10------10\|--|--

Stave 2:

E|-----------|--------------|-----------|--------|--|-----------------|--------------------|-----------|--
B|-----------|--------------|-----------|--------|--|-----------------|--------------------|-----------|--
G|-----------|--------------|-----------|--------|--|-----------------|--------------------|-----------|--
D|-----------|--------------|-----------|--------|--|-----------------|--------------------|-----------|--
A|-----------|--------------|-----------|--------|--|-----------------|--------------------|-----------|--
E|--0--3--5--|--0--3--6--5--|--0--3--5--|--3--0--|--|--0--3--3--5--5--|--8p7--8p7--8p7--3--|--3--5--5--|--

Stave 3:

E|--------------------------|--------------------------|--|--
B|--------------------------|--------------------------|--|--
G|--------------------------|--------------------------|--|--
D|--------------------------|--------------------------|--|--
A|--------4-----5-----4-----|--2-----------2-----------|--|--
E|--2--2-----2-----2-----2--|-----5--4--5-----5--4--0--|--|--

Stave 4:

E|--------------------|--------------------|--|-----------------|--------------------|--|--
B|--------------------|--------------------|--|-----------------|--------------------|--|--
G|--------------------|--------------------|--|-----------------|--------------------|--|--
D|--------5-----------|--------5-----------|--|-----------4--4--|-----------7--7-----|--|--
A|-----7-----------7--|-----7-----------7--|--|--4--4-----2--2--|--7--7-----5--5-----|--|--
E|--0--------6--5-----|--0--------6--5-----|--|--2--2-----------|--5--5--------------|--|--

http://www.guitartabcreator.com
Guitar Tab Creator is intended to store guitar tab created through the tool. It currently does not support in-line text editing. Any text you place in here will be lost. If you need to comment on your tab, please use the "Tab Notes" section located below.