Sound will begin in 5 seconds

Broken But Not Hopeless by Stay The Course.

Chords
01234567891011121314151617181920212223
E
B
G
D
A
E
B
0 1 2 3 4 5 6 7 8 9 10 11 12 13 14 15 16 17 18 19 20 21 22 23
Song Science #1: How Pros Use 6 Chords to Write Hit Songs
(/) Slide Up  (\) Slide Down  (h) Hammer On  (p) Pull Off  (b) Bend (r) Release (v) Vibrato

Stave 1:

E |----------------------------------------------------------
B |----------------------------------------------------------
G |----------------------------------------------------------
Db|-------------------------------------------5h6p5p0--------
Ab|---------------------------------6---6---6----------------
Db|-5-5-5-5-5-5-5-5-5-5-5-5-5-5-5-5---5---5-----------8p3----

Stave 2:

E |------------------------------------------------------------------
B |------------------------------------------------------------------
G |------------------------------------------------------------------
Db|---8-6-5-5-6-5----5-5-5-5----5-5----5-5----5-5--------------------
Ab|---8-6-5-5-6-5----6-5-5-5----5-5----5-5----5-5--------------------
Db|---8-6-5-5-6-5----5-5-7-5----5-5----5-5----5-5-6-3-3-3-3-3-3-3----

Stave 3:

E |-------------------------------------------------------------------------
B |-------------------------------------------------------------------------
G |-------------------------------------------------------------------------
Db|---8-6-5-5-6-5----5-5-5-5----5-5----5-5----5-5---------------------------
Ab|---8-6-5-5-6-5----6-5-5-5----5-5----5-5----5-5---------------------------
Db|---8-6-5-5-6-5----5-5-7-5----5-5----5-5----5-5-13-10-10-10-12-12-12-12---

Stave 4:

E |---------------------------------------------------------------
B |---------------------------------------------------------------
G |---------------------------------------------------------------
Db|---8-6-5-5-6-5----5-5-5-5----5-5----5-5----5-5-----------------
Ab|---8-6-5-5-6-5----6-5-5-5----5-5----5-5----5-5-----------------
Db|---8-6-5-5-6-5----5-5-7-5----5-5----5-5----5-5-6-3-3-3-3-3-3-3-

Stave 5:

E |-----------------------------------------------------
B |-----------------------------------------------------
G |-----------------------------------------------------
Db|-1-1-1-1-1-1-----------------------------------------
Ab|-1-1-1-1-1-1---5----------3----------------1-0-------
Db|-1-1-1-1-1-1-1---1-1----1---0-0----0-0-1h3-----6p3---

Stave 6:

E |---------------------------------------------------------------
B |---------------------------------------------------------------
G |---------------------------------------------------------------
Db|-8-6-5-5-6-5----5-5-5-5----5-5----5-5----5-5-------------------
Ab|-8-6-5-5-6-5----6-5-5-5----5-5----5-5----5-5-------------------
Db|-8-6-5-5-6-5----5-5-7-5----5-5----5-5----5-5-6-3-3-3-3-3-3-3---

Stave 7:

E |-----------------------------------------------------------------------
B |-----------------------------------------------------------------------
G |-----------------------------------------------------------------------
Db|-8-6-5-5-6-5----5-5-5-5----5-5----5-5----5-5---------------------------
Ab|-8-6-5-5-6-5----6-5-5-5----5-5----5-5----5-5---------------------------
Db|-8-6-5-5-6-5----5-5-7-5----5-5----5-5----5-5-13-10-10-10-12-12-12-12---

Stave 8:

E |---------------------------------------------------------------
B |---------------------------------------------------------------
G |---------------------------------------------------------------
Db|-8-6-5-5-6-5----5-5-5-5----5-5----5-5----5-5-------------------
Ab|-8-6-5-5-6-5----6-5-5-5----5-5----5-5----5-5-------------------
Db|-8-6-5-5-6-5----5-5-7-5----5-5----5-5----5-5-6-3-3-3-3-3-3-3---

Stave 9:

E |-----------------------------------------------------
B |-----------------------------------------------------
G |-----------------------------------------------------
Db|-1-1-1-1-1-1-----------------------------------------
Ab|-1-1-1-1-1-1---5----------3----------------1-0-------
Db|-1-1-1-1-1-1-1---1-1----1---0-0----0-0-1h3-----6p3---

Stave 10:

E |----------------------------------------------------------------------------
B |----------------------------------------------------------------------------
G |----------------------------------------------------------------------------
Db|----------------------------------------------------------------------------
Ab|-------5-------------1-0----------------------------6p3h5-------------------
Db|-0-1-0---1-0-0-0h1h3-----1-0-0-6-3-3h5-5-5----0-1-0-------0-0-8p5h6-0-0-----

Stave 11:

E |-----------
B |-----------
G |-----------
Db|-----------
Ab|-----------
Db|-6-3-3-3---

Stave 12:

E |-----------------------------------------------------------------------------------
B |-----------------------------------------------------------------------------------
G |-----------------------------------------------------------------------------------
Db|----------------------------------------------8----8-8-8---------------------------
Ab|-------5-------------1-0----------------------8----8-8-8-6---5-------4-------------
Db|-0-1-0---1-0-0-0h1h3-----1-0-0-6-3-3h5-5-5----8----8-8-8---8---8-6-5---0-3-0-1-0---

Stave 13:

E |----------------------------------------------------------------------------
B |----------------------------------------------------------------------------
G |----------------------------------------------------------------------------
Db|----------------------------------------------------------------------------
Ab|-------5-------------1-0----------------------------6p3h5-------------------
Db|-0-1-0---1-0-0-0h1h3-----1-0-0-6-3-3h5-5-5----0-1-0-------0-0-8p5h6-0-0-----

Stave 14:

E |-----------
B |-----------
G |-----------
Db|-----------
Ab|-----------
Db|-6-3-3-3---

Stave 15:

E |-----------------------------------------------------------------------------------
B |-----------------------------------------------------------------------------------
G |-----------------------------------------------------------------------------------
Db|----------------------------------------------8----8-8-8-------------------------0-
Ab|-------5-------------1-0----------------------8----8-8-8-6---5-------4-----------0-
Db|-0-1-0---1-0-0-0h1h3-----1-0-0-6-3-3h5-5-5----8----8-8-8---8---8-6-5---0-3-0-1-0-0-

Stave 16:

E |---------------------------------------------------------------------------------------
B |---------------------------------------------------------------------------------------
G |---------------------------------------------------------------------------------------
Db|-5-5----5-5-5-5----5-5----5-5-5-7-7----7-7-7-8----8-8-8-8-8----3-3----3-3-3-3----3-3---
Ab|-5-5----5-5-5-5----5-5----5-5-5-5-5----5-5-5-5----5-5-8-8-8----3-3----3-3-3-3----3-3---
Db|-5-5----5-5-5-5----5-5----5-5-5-5-5----5-5-5-5----5-5-8-8-8----3-3----3-3-3-3----3-3---

Stave 17:

E |-------------------------------------------
B |-------------------------------------------
G |-------------------------------------------
Db|-3-3----1-1----1-1-1-1----1-1-1------------
Ab|-3-3----1-1----1-1-1-1----3-3-3------------
Db|-3-3----1-1----1-1-1-1----1-1-1----3-3-3---

Stave 18:

E |-------------------------------------------------------------------------------------
B |-------------------------------------------------------------------------------------
G |-------------------------------------------------------------------------------------
Db|-5-5----5-5-5-5----5-5----5-5-5-7-7----7-7-7-8----8-8-8-8-8----3-3----3-3-3-3----3-3-
Ab|-5-5----5-5-5-5----5-5----5-5-5-5-5----5-5-5-5----5-5-8-8-8----3-3----3-3-3-3----3-3-
Db|-5-5----5-5-5-5----5-5----5-5-5-5-5----5-5-5-5----5-5-8-8-8----3-3----3-3-3-3----3-3-

Stave 19:

E |-------------------------------------------
B |-------------------------------------------
G |-------------------------------------------
Db|-3-3----1-1----1-1-1-1----1-1-1------------
Ab|-3-3----1-1----1-1-1-1----3-3-3------------
Db|-3-3----1-1----1-1-1-1----1-1-1----3-3-3---

Stave 20:

E |---------------------------------------------------------------
B |---------------------------------------------------------------
G |---------------------------------------------------------------
Db|-8-6-5-5-6-5----5-5-5-5----5-5----5-5----5-5-------------------
Ab|-8-6-5-5-6-5----6-5-5-5----5-5----5-5----5-5-------------------
Db|-8-6-5-5-6-5----5-5-7-5----5-5----5-5----5-5-6-3-3-3-3-3-3-3---

Stave 21:

E |-----------------------------------------------------------------------
B |-----------------------------------------------------------------------
G |-----------------------------------------------------------------------
Db|-8-6-5-5-6-5----5-5-5-5----5-5----5-5----5-5---------------------------
Ab|-8-6-5-5-6-5----6-5-5-5----5-5----5-5----5-5---------------------------
Db|-8-6-5-5-6-5----5-5-7-5----5-5----5-5----5-5-13-10-10-10-12-12-12-12---

Stave 22:

E |---------------------------------------------------------------
B |---------------------------------------------------------------
G |---------------------------------------------------------------
Db|-8-6-5-5-6-5----5-5-5-5----5-5----5-5----5-5-------------------
Ab|-8-6-5-5-6-5----6-5-5-5----5-5----5-5----5-5-------------------
Db|-8-6-5-5-6-5----5-5-7-5----5-5----5-5----5-5-6-3-3-3-3-3-3-3---

Stave 23:

E |-------------------------------------------------------------
B |-------------------------------------------------------------
G |-------------------------------------------------------------
Db|-8-6-5-5-6-5----5-5-5-5----5-5----5-5----5-5-----------------
Ab|-8-6-5-5-6-5----6-5-5-5----5-5----5-5----5-5-----------------
Db|-8-6-5-5-6-5----5-5-7-5----5-5----5-5----5-5-6-3-3-3-3-3-3-3-

Stave 24:

E |-------------------------------------------------------------------------------------------
B |-------------------------------------------------------------------------------------------
G |-------------------------------------------------------------------------------------------
Db|-5-5-5-5-5----5-5----5-5----5-5----5-5-5-5----5-5----5-5----5-5----6-5-5-5----4-5-5-5----5-
Ab|-5-5-5-5-5----5-5----5-5----5-5----5-5-5-5----5-5----5-5----5-5----6-5-5-5----4-5-5-5----5-
Db|-5-5-5-5-5----5-5----5-5----5-5----5-5-5-5----5-5----5-5----5-5----6-5-5-5----4-5-5-5----5-

Stave 25:

E |---------------
B |---------------
G |---------------
Db|-5-5----5-5----
Ab|-5-5----5-5----
Db|-5-5----5-5----

http://www.guitartabcreator.com
Guitar Tab Creator is intended to store guitar tab created through the tool. It currently does not support in-line text editing. Any text you place in here will be lost. If you need to comment on your tab, please use the "Tab Notes" section located below.