Sound will begin in 5 seconds

Hc jwalsh

Chords
01234567891011121314151617181920212223
E
B
G
D
A
E
B
0 1 2 3 4 5 6 7 8 9 10 11 12 13 14 15 16 17 18 19 20 21 22 23
Song Science #1: How Pros Use 6 Chords to Write Hit Songs
(/) Slide Up  (\) Slide Down  (h) Hammer On  (p) Pull Off  (b) Bend (r) Release (v) Vibrato

Stave 1:

E|-----------|--------------------|-----------------|-----|--|--|--|--|--
B|-----------|--------------------|-----------------|-----|--|--|--|--|--
G|-----------|--------------------|-----------------|-----|--|--|--|--|--
D|--0--2--4--|--2--0--------0--2--|-----------0-----|--4--|--|--|--|--|--
A|-----------|--------4--4--------|--2--2--4-----0--|-----|--|--|--|--|--
E|-----------|--------------------|-----------------|-----|--|--|--|--|--

Stave 2:

E|-----|-----|-----|-----|-----|-----|--------|---------|--
B|-----|-----|-----|-----|-----|-----|--------|---------|--
G|--4--|--3--|--2--|--1--|-----|-----|--------|---------|--
D|-----|-----|-----|-----|--5--|--4--|--0--2--|--4b6r4--|--
A|-----|-----|-----|-----|-----|-----|--------|---------|--
E|-----|-----|-----|-----|-----|-----|--------|---------|--

Stave 3:

E|--------------|-----|--------------------------|--|-----------------|-----|--10-----10-----10-----------8p7--
B|--------------|-----|--10--10--12--10--14--12--|--|-----------------|-----|--10h12--10h12--10--------7-------
G|--------------|-----|--11--11--12--11--14--12--|--|-----------------|--0--|--------------------11\7----------
D|--------------|--0--|--------------------------|--|--------0--2--4--|-----|----------------------------------
A|-----1--2--4--|-----|--------------------------|--|--2--4-----------|-----|----------------------------------
E|--2-----------|-----|--------------------------|--|-----------------|-----|----------------------------------

Stave 4:

E|----------|-----|-----|----------|-----|-----|--------|-------------------
B|----------|-----|-----|----------|-----|-----|--------|-------------------
G|--4--6b7--|--3--|--2--|--1--6b7--|-----|-----|--------|-------------3--4--
D|----------|-----|-----|----------|--5--|--4--|--0--2--|--4b5--4--5--------
A|----------|-----|-----|----------|-----|-----|--------|-------------------
E|----------|-----|-----|----------|-----|-----|--------|-------------------

Stave 5:

E|-----10p9h10--|-----9p8h9--|-----9p8h9--|-----7p6h7--|-----7p6h7--|-----5p4h5--|------------|---------
B|--------------|------------|------------|------------|------------|------------|-----8p7h8--|--10--8--
G|--4-----------|--3---------|--2---------|--1---------|------------|------------|------------|---------
D|--------------|------------|------------|------------|--5---------|--4---------|--2---------|---------
A|--------------|------------|------------|------------|------------|------------|------------|---------
E|--------------|------------|------------|------------|------------|------------|------------|---------

Stave 6:

E|------------------------7-----------7-----------7-------------------------|----------------------|--
B|--------7--10--------7-----------7-----------7----------------------------|-------------------9--|--
G|--9b11---------9b11--------9b11--------9b11--------9b11r9--7--9--7--9/11--|--11b14--9--11--7-----|--
D|--------------------------------------------------------------------------|----------------------|--
A|--------------------------------------------------------------------------|----------------------|--
E|--------------------------------------------------------------------------|----------------------|--

Stave 7:

E|---------7----------------10------7----------------|-----------------------------17------|--
B|--10b12-----10--7--10b12------10-----11--10--9/12--|---------12--15--17--15--17------17--|--
G|---------------------------------------------------|--14b16------------------------------|--
D|---------------------------------------------------|-------------------------------------|--
A|---------------------------------------------------|-------------------------------------|--
E|---------------------------------------------------|-------------------------------------|--

Stave 8:

E|------15--16--17-----------------------------|----------17--17------------------17b19--|--
B|--17--------------17--15--17p15b17r15b17r15--|--17--15----------15--15--17--15---------|--
G|---------------------------------------------|-----------------------------------------|--
D|---------------------------------------------|-----------------------------------------|--
A|---------------------------------------------|-----------------------------------------|--
E|---------------------------------------------|-----------------------------------------|--

Stave 9:

E|--12b14r13r13r13r13--12--10------12--10------|-------------------------|--
B|-----------------------------12----------12--|--10-----------------10--|--
G|---------------------------------------------|------11\9--7--9/11------|--
D|---------------------------------------------|-------------------------|--
A|---------------------------------------------|-------------------------|--
E|---------------------------------------------|-------------------------|--

Stave 10:

E|-----7-------------------------------------------------|--7------------------------------11--12--|--
B|--------7--10-----7------------------------------------|-----10--7--------------7--8--7----------|--
G|--9------------------7--9-----9------------------------|------------9--7--7--9-------------------|--
D|---------------7-----------9--------7---------------7--|-----------------------------------------|--
A|---------------------------------9-----9\7--5--7/9-----|-----------------------------------------|--
E|-------------------------------------------------------|-----------------------------------------|--

Stave 11:

E|--10----------|--9----------14--|--9---------|--7--------12--|--7--------|--5--------10--|--3--------|--6--------9--|--
B|------12------|-----11----------|-----10-----|-----9---------|-----8-----|-----7---------|-----5-----|-----7--------|--
G|----------11--|---------11------|---------9--|--------9------|--------7--|--------7------|--------4--|--------6-----|--
D|--------------|-----------------|------------|---------------|-----------|---------------|-----------|--------------|--
A|--------------|-----------------|------------|---------------|-----------|---------------|-----------|--------------|--
E|--------------|-----------------|------------|---------------|-----------|---------------|-----------|--------------|--

http://www.guitartabcreator.com
Guitar Tab Creator is intended to store guitar tab created through the tool. It currently does not support in-line text editing. Any text you place in here will be lost. If you need to comment on your tab, please use the "Tab Notes" section located below.