Sound will begin in 5 seconds

Pulloff Hell

Chords
01234567891011121314151617181920212223
E
B
G
D
A
E
B
0 1 2 3 4 5 6 7 8 9 10 11 12 13 14 15 16 17 18 19 20 21 22 23
Top Courses in Music 160x600
(/) Slide Up  (\) Slide Down  (h) Hammer On  (p) Pull Off  (b) Bend (r) Release (v) Vibrato

Stave 1:

E|------------------------------------------------------------------------------------
B|------------------------------------------------------------------------------------
G|------------------------------------------------------------------------------------
D|--0h4p0----------7p5p4--5p4p0--0h4h5--5p4p0--0h4p0----------5p4p0-------------------
A|---------5p0--0-------------------------------------5p0--0---------7p5p4--7p5p4--5--
E|------------------------------------------------------------------------------------

Stave 2:

E|-----------------------------------------------------------
B|-----------------------------------------------------------
G|-----------------------------------------------------------
D|--4-----7--7--5--5--4--4-----4--4--------------------------
A|--5-----7--7--7--7--5--5-----5--5--4--4--4--4--5--5--5-----
E|-----------------------------------5--5--5--5--5--5--5-----

Stave 3:

E|--------------------------------------------------------
B|--------------------------------------------------------
G|--------------------------------------------------------
D|--7--7--6--6-----6--7--6--7-----6--6--6--6--0--0--------
A|--7--7--7--7-----7--7--7--7-----7--7--5--5--4--4--2-----
E|--------------------------------7--7--7--7--5--5--0-----

Stave 4:

E|--------------------------------------------------------------------------
B|--------------------------------------------------------------------------
G|--------------------------------------------------------------------------
D|--6-----------------------------------------------------------------------
A|--7--7--5--5--4--4--2--2-----4--4--5--5--4--4--2--2--4--4--5--4--5--2--2--
E|--7--7--7--7--5--5--0--0-----5--5--5--5--5--5--0--0--5--5--5--5--5--3--0--

http://www.guitartabcreator.com
Guitar Tab Creator is intended to store guitar tab created through the tool. It currently does not support in-line text editing. Any text you place in here will be lost. If you need to comment on your tab, please use the "Tab Notes" section located below.