Sound will begin in 5 seconds

A Mighty Fortress Is Our God by Martin Luther - Metal v2 (h)=pinch harmonic the note after the (h). Slide btween chords on stave 3

Chords
01234567891011121314151617181920212223
E
B
G
D
A
E
B
0 1 2 3 4 5 6 7 8 9 10 11 12 13 14 15 16 17 18 19 20 21 22 23
Song Science #1: How Pros Use 6 Chords to Write Hit Songs
(/) Slide Up  (\) Slide Down  (h) Hammer On  (p) Pull Off  (b) Bend (r) Release (v) Vibrato

Stave 1:

E|----------------------------------------------------------
B|----------------------------------------------------------
G|--0--0--0------------------------0------------------------
D|-----------0--2--4--5--4h2v--0v------------------------5--
A|------------------------------------9--7--5h7v--3\2p2--5--
E|-------------------------------------------------------3--

Stave 2:

E|----------------------------------------------------------
B|----------------------------------------------------------
G|--0--0--0------------------------0------------------------
D|-----------0--2--4--5--4h2v--0v------------------------5--
A|------------------------------------9--7--5h7v--3\2p2--5--
E|-------------------------------------------------------3--

Stave 3:

E|-----------------------------------------------------------------------------
B|-----------------------------------------------------------------------------
G|-----------------------------------------------------------7--7--5--7--3-----
D|--0--0--2--0------0--0--3--3--5--7--8v--7--8--7--5--5--3v--5--5--3--5--1--0--
A|--------------4v----------------------------------------------------------0--
E|-----------------------------------------------------------------------------

Stave 4:

E|-----------------------------
B|-----------------------------
G|--------------------------3--
D|--8--7--5--3h5v--8--7--5--3--
A|-----------------6--5--3--1--
E|-----------------------------

http://www.guitartabcreator.com
Guitar Tab Creator is intended to store guitar tab created through the tool. It currently does not support in-line text editing. Any text you place in here will be lost. If you need to comment on your tab, please use the "Tab Notes" section located below.