Sound will begin in 5 seconds

The National Anthem

01234567891011121314151617181920212223
E
B
G
D
A
E
B
0 1 2 3 4 5 6 7 8 9 10 11 12 13 14 15 16 17 18 19 20 21 22 23
Top Courses in Music 160x600
(/) Slide Up  (\) Slide Down  (h) Hammer On  (p) Pull Off  (b) Bend (r) Release (v) Vibrato

Stave 1:

E|--------------------------------------------------------------------------
B|-----------------5--3--------------------5--3-----------------------------
G|--------------5--------5-----------------------5--4--2--4--5--5-----------
D|--------2--5--------------2--4--5--5--5--------------------------5--2-----
A|--5--3-----------------------------------------------------------------3--
E|--------------------------------------------------------------------------

Stave 2:

E|-----------------------------------------------------------------------------
B|-----3--5--5--5--6--8--8--6--5--3--5--6--6--6--5--3--------------------------
G|-----------------------------------------------------5--4--2--4--5-----------
D|--------------------------------------------------------------------2--4--5--
A|-----------------------------------------------------------------------------
E|-----------------------------------------------------------------------------

Stave 3:

E|-----------------------------------------------------------------------
B|-----------------------3--6--5--3-----------3--5--8--6--5--3-----------
G|-----5--5--5--4--2--2--------------5--5--4--------------------5--4-----
D|--5-----------------------------------------------------------------5--
A|-----------------------------------------------------------------------
E|-----------------------------------------------------------------------

http://www.guitartabcreator.com
Guitar Tab Creator is intended to store guitar tab created through the tool. It currently does not support in-line text editing. Any text you place in here will be lost. If you need to comment on your tab, please use the "Tab Notes" section located below.