Sound will begin in 5 seconds

Solo for Am 3

Chords
01234567891011121314151617181920212223
E
B
G
D
A
E
B
0 1 2 3 4 5 6 7 8 9 10 11 12 13 14 15 16 17 18 19 20 21 22 23
Song Science #1: How Pros Use 6 Chords to Write Hit Songs
(/) Slide Up  (\) Slide Down  (h) Hammer On  (p) Pull Off  (b) Bend (r) Release (v) Vibrato

Stave 1:

E|--10--10--10--9--10--8b9--7--5--8--7--5--3--5v--17--15--14--15b16--14------14--12--15--14--12------14--
B|-----------------------------------------------------------------------15----------------------15------
G|-------------------------------------------------------------------------------------------------------
D|-------------------------------------------------------------------------------------------------------
A|-------------------------------------------------------------------------------------------------------
E|-------------------------------------------------------------------------------------------------------

Stave 2:

E|--12/17-----15--14--12----------------------12-----0---0-0--0--8--0--7--0--0--
B|------------------------15--12--10--12--10---------10--5/7--7--------------7--
G|---------------------------------------------------10--5-7--7--------------7--
D|-------------------------------------------------------5-0--0--------------9--
A|------------------------------------------------------------------------------
E|------------------------------------------------------------------------------

Stave 3:

E|------------------------------------2--
B|--12-----------------------------0--0--
G|------11-----11---------9--9--9--2--2--
D|----------9------11-----9--9--9--1--1--
A|---------------------9--7--7--7--2--2--
E|------------------------0--0--0--0--0--

http://www.guitartabcreator.com
Guitar Tab Creator is intended to store guitar tab created through the tool. It currently does not support in-line text editing. Any text you place in here will be lost. If you need to comment on your tab, please use the "Tab Notes" section located below.