Sound will begin in 5 seconds

1

Chords
01234567891011121314151617181920212223
E
B
G
D
A
E
B
0 1 2 3 4 5 6 7 8 9 10 11 12 13 14 15 16 17 18 19 20 21 22 23
Song Science #1: How Pros Use 6 Chords to Write Hit Songs
(/) Slide Up  (\) Slide Down  (h) Hammer On  (p) Pull Off  (b) Bend (r) Release (v) Vibrato

Stave 1:

E|-------------------------------------------------------------------------------------------
B|-------------------------------------------------------------------------------------------
G|-------------------------------------------------------------------------------------------
D|--------7--------7---------------------7-----------7---------------------------5-----------
A|-----------8--------10-----8-----7--------5-----------10-----8-----7-----5--7-----7--5--3--
D|--0--0--------0---------0-----0-----0--------0--0---------0-----0-----0--------------------

Stave 2:

E|---------------------------------------------------------------------------------------------
B|---------------------------------------------------------------------------------------------
G|---------------------------------------7---------------------------7-------------------------
D|--------7--------7------------------------7--------7------------------10--8--7------8--7-----
A|-----------8--------10-----8-----7--------------------10-----8------------------10--------8--
D|--0--0--------0---------0-----0-----0--------0--0---------0-----0----------------------------

Stave 3:

E|-----------------------------------------------------------------------------------------------------------------
B|-----------------------------------------------------------------------------------------------------------------
G|-----------------------------------------------------------------------------------------------------------------
D|-----------------------------------7--8--7---------------------------7--5--------------10--8--7------------------
A|-----------5--7--8--7--5--------------------8--8--10-----------5--7--------8---------------------10--8--7--8--7--
D|--0--0--0-----------------8--8--8---------------------5--5--5-----------------0--0--0----------------------------

Stave 4:

E|----------------------------------------------------------------------------------------------------------------------------------------
B|----------------------------------------------------------------------------------------------------------------------------------------
G|-----------------------------9--9--10--------------------------10--10--12---------------------------------------------------------------
D|---------------------------------------10--12--10----------------------------------12--10---------------14--12--10----------------------
A|-----------8--10--12--10--8--7--7--8---------------12--12--13--8---8---10--10--12----------12-----------------------13--12--10--12--10--
D|--0--0--0--------------------------------------------------------------------------------------0--0--0----------------------------------

http://www.guitartabcreator.com
Guitar Tab Creator is intended to store guitar tab created through the tool. It currently does not support in-line text editing. Any text you place in here will be lost. If you need to comment on your tab, please use the "Tab Notes" section located below.