Sound will begin in 5 seconds

Asleep at the Wheel - Band of Skulls (bridge/solo)

Chords
01234567891011121314151617181920212223
E
B
G
D
A
E
B
0 1 2 3 4 5 6 7 8 9 10 11 12 13 14 15 16 17 18 19 20 21 22 23
Top Courses in Music 160x600
(/) Slide Up  (\) Slide Down  (h) Hammer On  (p) Pull Off  (b) Bend (r) Release (v) Vibrato

Stave 1:

E|-------------------------------------
B|-------------------------------------
G|-------------------------------------
D|-------------------------------------
A|------------10h12p10--8h10p8--7h8p7--
D|--12h15p12---------------------------

Stave 2:

E|-----------------------------------
B|-----------------------------------
G|-----------------------------------
D|-----------------------------------
A|----------10--13--10--8--12--8--7--
D|--12--15---------------------------

Stave 3:

E|----------------------------------------------------------------
B|----------------------------------------------------------------
G|--14--12--10--12--10--------------------14--12--10--12--10------
D|------------------------------------------------------------12--
A|----------------------------------------------------------------
D|----------------------------------------------------------------

Stave 4:

E|----------------------------------------------
B|--12/15---------------------------------------
G|---------14-----------14--12--10--12--10------
D|------------------------------------------12--
A|----------------------------------------------
D|----------------------------------------------

Stave 5:

E|------------------------
B|------------------------
G|------------------------
D|--3--4--5-----8--9--10--
A|--3--4--5-----8--9--10--
D|--3--4--5-----8--9--10--

Stave 6:

E|--------------------------------------------------------------------------------------------
B|--------------------------------------------------------------------------------------------
G|------15--14--12---------------------15--14--12---------------------15--14--12--------------
D|--12--------------15--12--15-----12--------------15--12--15-----12--------------15--12--15--
A|--------------------------------------------------------------------------------------------
D|--------------------------------------------------------------------------------------------

Stave 7:

E|-------------------------------------------------------------
B|---------------------------------------------------------13--
G|--------------15--17--15--14--15--14--12---------------------
D|--12--15--12-------------------------------------------------
A|-------------------------------------------------------------
D|-------------------------------------------------------------

http://www.guitartabcreator.com
Guitar Tab Creator is intended to store guitar tab created through the tool. It currently does not support in-line text editing. Any text you place in here will be lost. If you need to comment on your tab, please use the "Tab Notes" section located below.