Sound will begin in 5 seconds

Comfortably Numb Acoustic

01234567891011121314151617181920212223
E
B
G
D
A
E
B
0 1 2 3 4 5 6 7 8 9 10 11 12 13 14 15 16 17 18 19 20 21 22 23
Song Science #1: How Pros Use 6 Chords to Write Hit Songs
(/) Slide Up  (\) Slide Down  (h) Hammer On  (p) Pull Off  (b) Bend (r) Release (v) Vibrato

Stave 1:

E|--------------------------------------------------
B|--------------------------------------------------
G|--7--9--9/11-----9/11--9p7-----7--9--9v--7-----7--
D|----------------------------9---------------9-----
A|--------------------------------------------------
E|--------------------------------------------------

Stave 2:

E|---------------------------------------10---------------------
B|--------10------10v--12--15--12p10h12-------------------------
G|--6/11------11--------------------------------7--9--9v--7-----
D|-----------------------------------------------------------9--
A|--------------------------------------------------------------
E|--------------------------------------------------------------

Stave 3:

E|----------------------------
B|----------------------------
G|-----------------7----------
D|-------7--7v--9-----9p7--9--
A|--5/9-----------------------
E|----------------------------

Stave 4:

E|--7--9--9v--7------7--
B|---------------10-----
G|----------------------
D|----------------------
A|----------------------
E|----------------------

Stave 5:

E|-----------------7--------------------------------------------------
B|--10p7-----7--7-----10--7-------------------------------------------
G|--------9------------------9/11--7-----9--7-------------------------
D|------------------------------------9--------9--7-------------------
A|---------------------------------------------------9--8--7\6-----5--
E|--------------------------------------------------------------7-----

Stave 6:

E|-------------------7----------------------------------------------------
B|----------------------10p7----------------------------------------------
G|--7--7--7v-----9v-----------9--11p9\7--9--7-----------------------------
D|---------------------------------------------9p7------------------------
A|--------------------------------------------------9\7--7--5--7p5-----5--
E|------------------------------------------------------------------7-----

Stave 7:

E|------------------------------------7------------
B|---------------------------------------10--7--7--
G|-----------------------7-----7--9v---------------
D|----------7--7--7v--9-----9----------------------
A|--7--7/9-----------------------------------------
E|-------------------------------------------------

http://www.guitartabcreator.com
Guitar Tab Creator is intended to store guitar tab created through the tool. It currently does not support in-line text editing. Any text you place in here will be lost. If you need to comment on your tab, please use the "Tab Notes" section located below.