Sound will begin in 5 seconds

nutshell into solo

01234567891011121314151617181920212223
E
B
G
D
A
E
B
0 1 2 3 4 5 6 7 8 9 10 11 12 13 14 15 16 17 18 19 20 21 22 23
Song Science #1: How Pros Use 6 Chords to Write Hit Songs
(/) Slide Up  (\) Slide Down  (h) Hammer On  (p) Pull Off  (b) Bend (r) Release (v) Vibrato

Stave 1:

E|--12--------------------------------------------
B|------12----------------------------------------
G|----------12--11r9--------------------9--10--9--
D|--------------------9--10--9--10--12------------
A|------------------------------------------------
E|------------------------------------------------

Stave 2:

E|--10-----------------12---------------------------
B|------10-----------------12-----------------------
G|----------7------------------12--11r9-------------
D|-------------7r5--4--------------------9--10--12--
A|--------------------------------------------------
E|--------------------------------------------------

Stave 3:

E|----------------------------------10-----------
B|--------------------------------------10-------
G|--9--11--12--11h12--11--9--11--9----------7----
D|---------------------------------------------7r
A|-----------------------------------------------
E|-----------------------------------------------

Stave 4:

E|--------12-------------------10-----------------
B|------------12-------------------10-------------
G|----------------12--11r9-------------7----------
D|--5--4--------------------9-------------7r5--4--
A|------------------------------------------------
E|------------------------------------------------

Stave 5:

E|--12--11r9---------10------------------
B|------------9--10------10--------------
G|---------------------------7-----------
D|------------------------------7--5--4--
A|---------------------------------------
E|---------------------------------------

Stave 6:

E|--------------------
B|--------------------
G|--4r4---------------
D|-------5--4---------
A|-------------5/7\3--
E|--------------------

http://www.guitartabcreator.com
Guitar Tab Creator is intended to store guitar tab created through the tool. It currently does not support in-line text editing. Any text you place in here will be lost. If you need to comment on your tab, please use the "Tab Notes" section located below.