Sound will begin in 5 seconds

7 Nation Army

Chords
01234567891011121314151617181920212223
E
B
G
D
A
E
B
0 1 2 3 4 5 6 7 8 9 10 11 12 13 14 15 16 17 18 19 20 21 22 23
Song Science #1: How Pros Use 6 Chords to Write Hit Songs
(/) Slide Up  (\) Slide Down  (h) Hammer On  (p) Pull Off  (b) Bend (r) Release (v) Vibrato

Stave 1:

E|--------------------------
B|--------------------------
G|--------------------------
D|--------5-----------------
A|--7--7-----7--5--3--2-----
E|--------------------------

Stave 2:

E|-----------------------------
B|-----------------------------
G|-----------------------------
D|--------5--------------------
A|--7--7-----7--5--3--5--3--2--
E|-----------------------------

Stave 3:

E|--------------------------------------------------
B|--------------------------------------------------
G|--------------------------------------------------
D|--5--5--5--5--5--5--5--5--7--7--7--7--7--7--7--7--
A|--5--5--5--5--5--5--5--5--7--7--7--7--7--7--7--7--
E|--3--3--3--3--3--3--3--3--5--5--5--5--5--5--5--5--

Stave 4:

E|------------------------
B|------------------------
G|--9--9--12--9--7--5--4--
D|--9--9--12--9--7--5--4--
A|--7--7--10--7--5--3--2--
E|------------------------

Stave 5:

E|------------------------------
B|------------------------------
G|--9--9--12--9--7--5--7--5--4--
D|--9--9--12--9--7--5--7--5--4--
A|--7--7--10--7--5--3--5--3--2--
E|------------------------------

Stave 6:

E|--------------------------------------------------
B|--------------------------------------------------
G|--------------------------------------------------
D|--------------------------------------------------
A|--------------------------------------------------
E|--3--3--3--3--3--3--3--3--5--5--5--5--5--5--5--5--

Stave 7:

E|--------------------------
B|--------------------------
G|--------------------------
D|--------------------------
A|--------3--3--2--2--------
E|--0--0--------------0--0--

Stave 8:

E|------------------------------------------------------
B|------------------------------------------------------
G|------------------------------------------------------
D|----------------------7--7----------------------------
A|--7--7--9--9--10--10--------10--10--9--9--7--7--6--6--
E|------------------------------------------------------

Stave 9:

E|-----0--
B|--8-----
G|--9-----
D|--9-----
A|--7-----
E|--0-----

Stave 10:

E|--0--7--0--
B|--8--7--0--
G|--9--8--6--
D|--9--9--7--
A|--7--9--7--
E|--0--7--7--

Stave 11:

E|---------------------------
B|--------8------------------
G|--9--9-----9--7--5b7r5--4--
D|---------------------------
A|---------------------------
E|---------------------------

Stave 12:

E|-----------------------
B|--------8--------------
G|--9--9-----9--7--5--4--
D|-----------------------
A|-----------------------
E|-----------------------

Stave 13:

E|----------------------------------------------------------------------------------------------------------------------------------
B|--12--0--7--12--0--7--12--0--7--12--0--7--12--10--0--5--10--0--5--10--0--5--10--0--5--12--8--0--3--8--0--3--8--0--3--8--0--3--12--
G|----------------------------------------------------------------------------------------------------------------------------------
D|----------------------------------------------------------------------------------------------------------------------------------
A|----------------------------------------------------------------------------------------------------------------------------------
E|----------------------------------------------------------------------------------------------------------------------------------

Stave 14:

E|---------------------------------------------------------------------------------------------------------------------------------------------------------
B|-----0--7--12--0--7--12--0--7--12--0--7--10--0--5--10--0--5--10--0--5--10--0--5--8--0--3--8--0--3--8--0--3--8--0--3--7--0--2--7--0--2--7--0--2--7--0--2--
G|---------------------------------------------------------------------------------------------------------------------------------------------------------
D|---------------------------------------------------------------------------------------------------------------------------------------------------------
A|---------------------------------------------------------------------------------------------------------------------------------------------------------
E|--1------------------------------------------------------------------------------------------------------------------------------------------------------

http://www.guitartabcreator.com
Guitar Tab Creator is intended to store guitar tab created through the tool. It currently does not support in-line text editing. Any text you place in here will be lost. If you need to comment on your tab, please use the "Tab Notes" section located below.