Sound will begin in 5 seconds

We Fall Down

01234567891011121314151617181920212223
E
B
G
D
A
E
B
0 1 2 3 4 5 6 7 8 9 10 11 12 13 14 15 16 17 18 19 20 21 22 23
Top Courses in Music 160x600
(/) Slide Up  (\) Slide Down  (h) Hammer On  (p) Pull Off  (b) Bend (r) Release (v) Vibrato

Stave 1:

E|-----------------------------------------------------------------------------------------------------
B|-----6-----9-----7-----6-----6-----------6-----7-----6--------9-----7-----6-----6-----------6-----7--
G|--6-----6-----------------------6--8--------------------6--------------------------6--8--------------
D|-----------------------------------------------------------------------------------------------------
A|-----------------------------------------------------------------------------------------------------
E|-----------------------------------------------------------------------------------------------------

Stave 2:

E|-----------------------------------------------------------------------------------------------------
B|--6--------9-----7-----6-----6-----------6-----7-----6--------9-----7-----6-----6-----------6-----7--
G|-----6--------------------------6--8--------------------6--------------------------6--8--------------
D|-----------------------------------------------------------------------------------------------------
A|-----------------------------------------------------------------------------------------------------
E|-----------------------------------------------------------------------------------------------------

Stave 3:

E|------------------------------------------------------------------------------------------------
B|-----6-----9-----7-----6-----6-----------6-----7-----6--------9-----7-----6-----6-----------6v--
G|--6-----6-----------------------6--8--------------------6--------------------------6--8---------
D|------------------------------------------------------------------------------------------------
A|------------------------------------------------------------------------------------------------
E|------------------------------------------------------------------------------------------------

Stave 4:

E|--------------------------------------------------------------------------------------------
B|--------------------------------------------------------------------------------------------
G|--10b11r10--8--6v----------------6---------------------10b11r10--8--6v----------------6--6--
D|-------------------------6/8--8-----8-----6--6v----------------------------6/8--8-----------
A|--------------------------------------------------------------------------------------------
E|--------------------------------------------------------------------------------------------

Stave 5:

E|-------9p6--8p6--------------------------------
B|--9p6------------9p6--7p6-------9p6--7p6-------
G|---------------------------8p6------------8p6--
D|-----------------------------------------------
A|-----------------------------------------------
E|-----------------------------------------------

http://www.guitartabcreator.com
Guitar Tab Creator is intended to store guitar tab created through the tool. It currently does not support in-line text editing. Any text you place in here will be lost. If you need to comment on your tab, please use the "Tab Notes" section located below.