Sound will begin in 5 seconds

Cancer

Chords
01234567891011121314151617181920212223
E
B
G
D
A
E
B
0 1 2 3 4 5 6 7 8 9 10 11 12 13 14 15 16 17 18 19 20 21 22 23
Top Courses in Music 160x600
(/) Slide Up  (\) Slide Down  (h) Hammer On  (p) Pull Off  (b) Bend (r) Release (v) Vibrato

Stave 1:

E|---------------------------------------------------------------------------------------------------
B|------------------------------------------0--1-----------0-----------------------------------------
G|------------------------0--0--0--0--0--2-----------2--------2-----------0-----------0--------------
D|------------------------------------------------2--------------2-----------3--2--0-----3--2--0-----
A|--3/5--5/7--7--------------------------------0--------0--------------------------------------------
E|---------------8--8--7-----------3--------------------------------3--2--1--------------1-----------

Stave 2:

E|----------------------------------------------------------------------------------------------
B|-------------------------------------------0--1-----------0-----------------------------------
G|-------------------------0--0--0--0--0--2-----------2--------2-----------0-----------0--------
D|-------------------------------------------------2--------------2-----------3--2--0-----3-----
A|--7/8--8--7--7--------------------------------0--------0--------------------------------------
E|--8-------------8--8--7-----------3--------------------------------3--2--1--------------1--1--

Stave 3:

E|-----------------------------------------------------------------------------------------------------
B|-----------------------------------------------------------------------------------------------------
G|-----------------------------------0--2--5--8\7-----5--7--9--10--9--7----------------------7---------
D|--3--3--2--0-----3--2--0-----------------------------------------------10--9------9--9/10-----10-----
A|--------------3--------------2-------------------0-----------9----------------10---------------------
E|-----1-----------4--------3-----3-----4-----------------------------------------------------------8--

Stave 4:

E|---------------------------------------------------------------------------------------------
B|----------1--3/4\3--1--3/4\3--1--3/4\3--1--3/4\3--1------------------------------------------
G|--0--0/2---------------------------------------------0-----------0---------------------------
D|--------------------------------------------------------3--2--0-----3--2--0--2-----0h2--0h2--
A|-------------3------------------------------------------------------------------0------------
E|-----------------------------------------------------3---------------------------------------

Stave 5:

E|---------------------------------------------------------------------------------------------------
B|--------------------------3/4\3--1--3/4\3--1--3/4\3--1--3/4\3--1-----------------------------------
G|--0-----------0-----0---------------------------------------------0-----------0--------------------
D|-----3--2--0-----3-----3---------------------------------------------3--2--0-----3--2--0--2--------
A|--------------------------3------------------------------------------------------------------0-----
E|--1---------------------------------------------------------------3--------------------------------

Stave 6:

E|----------------------------------------
B|----------------------------------------
G|----------------0-----------0-----0-----
D|--12-----12--------3--2--0-----3-----3--
A|------7------7--------------------------
E|----------------1-----------------------

Stave 7:

E|------------------------------------------------------------------------------------------------
B|------------------------------------------0--1-----------0--------------------------------------
G|------------------------0--0--0--0--0--2-----------2--------2-----------0-----------0-----------
D|------------------------------------------------2--------------2-----------3--2--0-----3--2--0--
A|--3/5--5/7--7--------------------------------0--------0-----------------------------------------
E|---------------8--8--7-----------3--------------------------------3--2--1--------------1--------

Stave 8:

E|----------------------------------------1--0--------------------------------------------
B|----------------------------------------------3/4\3--1----------------------------------
G|-------------------------0--0--0--0--0------------------2p0-----0-----------------------
D|-------------------------------------------------------------2-----2p0--2p0-----0-------
A|--7/8--8--7--7--------------------------------0------------------------------3-----3p0--
E|--8-------------8--8--7-----------3-----------------------------------------------------

Stave 9:

E|----------------------------------------------------------------------------
B|----------------------------------------------------------------------------
G|--0-----------0-----------------------------------------0--2--5--8\7-----5--
D|-----3--2--0-----3-----3--3--2--0-----3--2--0-------------------------------
A|-----------------------------------3--------------2-------------------0-----
E|--1-----------------1-----1-----------4--------3-----3-----4----------------

http://www.guitartabcreator.com
Guitar Tab Creator is intended to store guitar tab created through the tool. It currently does not support in-line text editing. Any text you place in here will be lost. If you need to comment on your tab, please use the "Tab Notes" section located below.