Sound will begin in 5 seconds

Wipeout

01234567891011121314151617181920212223
E
B
G
D
A
E
B
0 1 2 3 4 5 6 7 8 9 10 11 12 13 14 15 16 17 18 19 20 21 22 23
Song Science #1: How Pros Use 6 Chords to Write Hit Songs
(/) Slide Up  (\) Slide Down  (h) Hammer On  (p) Pull Off  (b) Bend (r) Release (v) Vibrato

Stave 1:

E|-----------------------------------------------------------------------------------------------------
B|-----------------------------------------------------------------------------------------------------
G|-----2--3--4--4--4--2--------2--3--4--4--4--2--------2--3--4--4--4--2--------2--3--4--4--4--3--------
D|--4--------------------4--4--------------------4--4--------------------4--4--------------------4--4--
A|-----------------------------------------------------------------------------------------------------
E|-----------------------------------------------------------------------------------------------------

Stave 2:

E|--------------------------------------------------
B|-----2--3--4--4--4--2--------2--3--4--4--4--2-----
G|--4--------------------4--4--------------------4--
D|--------------------------------------------------
A|--------------------------------------------------
E|--------------------------------------------------

Stave 3:

E|--------------------------------------------------
B|--------------------------------------------------
G|-----2--3--4--4--4--2--------2--3--4--4--4--2-----
D|--4--------------------4--4--------------------4--
A|--------------------------------------------------
E|--------------------------------------------------

Stave 4:

E|-----------------------------------
B|-----5--6--7--7--7--5--------7--7--
G|--6--------------------6--6--------
D|-----------------------------------
A|-----------------------------------
E|-----------------------------------

Stave 5:

E|-----------------
B|--5--5--5--3-----
G|--------------4--
D|-----------------
A|-----------------
E|-----------------

Stave 6:

E|--------------------------------------------------------
B|--------------------------------------------------------
G|-----2--3--4--4--4--2--------4--2-----------------------
D|--4--------------------4--4--------4--4--4--4--4--4--4--
A|--------------------------------------------------------
E|--------------------------------------------------------

Stave 7:

E|--------------
B|-----------7--
G|--------8-----
D|-----9--------
A|--9-----------
E|--------------

Stave 8:

E|-----------
B|-----------
G|--------1--
D|-----2-----
A|--2--------
E|-----------

Stave 9:

E|--------------
B|-----------7--
G|--------8-----
D|-----9--------
A|--9-----------
E|--------------

Stave 10:

E|--------------
B|-----------2--
G|--------3-----
D|-----4--------
A|--4-----------
E|--------------

Stave 11:

E|-----------
B|-----------
G|--------1--
D|-----2-----
A|--2--------
E|-----------

Stave 12:

E|--------------
B|-----------7--
G|--------8-----
D|-----9--------
A|--9-----------
E|--------------

Stave 13:

E|--
B|--
G|--
D|--
A|--
E|--

http://www.guitartabcreator.com
Guitar Tab Creator is intended to store guitar tab created through the tool. It currently does not support in-line text editing. Any text you place in here will be lost. If you need to comment on your tab, please use the "Tab Notes" section located below.