Sound will begin in 5 seconds

The Great Discovery Solo

01234567891011121314151617181920212223
E
B
G
D
A
E
B
0 1 2 3 4 5 6 7 8 9 10 11 12 13 14 15 16 17 18 19 20 21 22 23
Song Science #1: How Pros Use 6 Chords to Write Hit Songs
(/) Slide Up  (\) Slide Down  (h) Hammer On  (p) Pull Off  (b) Bend (r) Release (v) Vibrato

Stave 1:

E|-----------------------------------------------------------------------------------------------------
B|--10------10h11p10------------------------------------------10v-------10--11b11--10--11--------------
G|------12------------12--------------------------10--12--14-------12v---------------------------------
D|------------------------10--12--13--12--13--15-------------------------------------------12--13--15--
A|-----------------------------------------------------------------------------------------------------
E|-----------------------------------------------------------------------------------------------------

Stave 2:

E|----------------------------------------------------------------------------------------
B|--------------13--15--16--22--20--22--22b20--18--20--22--22--20--22--23--23b23--22--23--
G|--12--14--15----------------------------------------------------------------------------
D|----------------------------------------------------------------------------------------
A|----------------------------------------------------------------------------------------
E|----------------------------------------------------------------------------------------

Stave 3:

E|--22---------20-------------------------------------------------------------------------------------------
B|------20\18------18\16------10------8------11------10v--10h11/13--13b13--11--13--12p11h12h14p12p11--------
G|------------------------10------10-----12------12---------------------------------------------------10/7--
D|----------------------------------------------------------------------------------------------------------
A|----------------------------------------------------------------------------------------------------------
E|----------------------------------------------------------------------------------------------------------

http://www.guitartabcreator.com
Guitar Tab Creator is intended to store guitar tab created through the tool. It currently does not support in-line text editing. Any text you place in here will be lost. If you need to comment on your tab, please use the "Tab Notes" section located below.