Sound will begin in 5 seconds

CAGED System

Chords
01234567891011121314151617181920212223
E
B
G
D
A
E
B
0 1 2 3 4 5 6 7 8 9 10 11 12 13 14 15 16 17 18 19 20 21 22 23
Song Science #1: How Pros Use 6 Chords to Write Hit Songs
(/) Slide Up  (\) Slide Down  (h) Hammer On  (p) Pull Off  (b) Bend (r) Release (v) Vibrato

Stave 1:

E|--------3-----2--
B|--1--2--0-----3--
G|--0--2--0--1--2--
D|--2--2--0--2--0--
A|--3--0--2--2-----
E|--------3--0-----

Stave 2:

E|--------------------8---------8----------------------------------20--
B|--1----------------------------------13--13--------------------------
G|-----------5--5--------------------------------------17--17----------
D|--------------------------10-----10----------------------------------
A|-----3--3------------------------------------15--15------------------
E|-----------------8-----8-------------------------------------20------

Stave 3:

E|----------------------------------8-----------------------
B|----------------------13--13---------------------------1--
G|------17--17-------------------------------5--5-----------
D|------------------------------10--------------------------
A|--------------15--15-----------------------------3--3-----
E|--20---------------------------------8--8-----------------

http://www.guitartabcreator.com
Guitar Tab Creator is intended to store guitar tab created through the tool. It currently does not support in-line text editing. Any text you place in here will be lost. If you need to comment on your tab, please use the "Tab Notes" section located below.