Sound will begin in 5 seconds

C Major Scale CAGED

Chords
01234567891011121314151617181920212223
E
B
G
D
A
E
B
0 1 2 3 4 5 6 7 8 9 10 11 12 13 14 15 16 17 18 19 20 21 22 23
Song Science #1: How Pros Use 6 Chords to Write Hit Songs
(/) Slide Up  (\) Slide Down  (h) Hammer On  (p) Pull Off  (b) Bend (r) Release (v) Vibrato

Stave 1:

E|---------------------------------------------------------------------7--8--
B|--1--0-----------------------------------------------------6--8--10--------
G|--------2--0--------------------------------4--5--5--7--9------------------
D|--------------3--2--0--------------3--5--7---------------------------------
A|-----------------------3--3--5--7------------------------------------------
E|---------------------------------------------------------------------------

Stave 2:

E|--8--7------------------------------------------------------------------------------------0--
B|--------10--8-------------------------------------12--13--13--12--------------------------1--
G|---------------10--7------------------10--12--14------------------14--12------------------0--
D|----------------------10--10--12--14--------------------------------------15--14--12------2--
A|--------------------------------------------------------------------------------------15--3--
E|---------------------------------------------------------------------------------------------

http://www.guitartabcreator.com
Guitar Tab Creator is intended to store guitar tab created through the tool. It currently does not support in-line text editing. Any text you place in here will be lost. If you need to comment on your tab, please use the "Tab Notes" section located below.