Sound will begin in 5 seconds

death

Chords
01234567891011121314151617181920212223
E
B
G
D
A
E
B
0 1 2 3 4 5 6 7 8 9 10 11 12 13 14 15 16 17 18 19 20 21 22 23
Top Courses in Music 160x600
(/) Slide Up  (\) Slide Down  (h) Hammer On  (p) Pull Off  (b) Bend (r) Release (v) Vibrato

Stave 1:

E|------------------------------------------------------------------------
B|------------------------------------------------------------------------
G|------------------------------------------------------------------------
D|--------------8--7-----7--------6-----------------8--9--10--9--8--------
A|-----------7--------6-----6--5-----5-----------7------------------7-----
E|--0--0--0-----------------------------0--0--0------------------------6--

Stave 2:

E|----------------------------------
B|----------------------------------
G|----------------------------------
D|----------------------------8--7--
A|-------------------------7--------
E|--0--0--0--1b3--0--0--0-----------

Stave 3:

E|-----------------------------------
B|-----------------------------------
G|-----------------------------------
D|-----------------------------------
A|--2--2-----2--2-----2--2-----2--2--
E|--0--0-----0--0-----0--0-----1--1--

http://www.guitartabcreator.com
Guitar Tab Creator is intended to store guitar tab created through the tool. It currently does not support in-line text editing. Any text you place in here will be lost. If you need to comment on your tab, please use the "Tab Notes" section located below.