Sound will begin in 5 seconds

Bong R.I.P

Chords
01234567891011121314151617181920212223
E
B
G
D
A
E
B
0 1 2 3 4 5 6 7 8 9 10 11 12 13 14 15 16 17 18 19 20 21 22 23
Top Courses in Music 160x600
(/) Slide Up  (\) Slide Down  (h) Hammer On  (p) Pull Off  (b) Bend (r) Release (v) Vibrato

Stave 1:

E|--------------------------|---------------------------------|--------------------------|--
B|--------------------------|---------------------------------|--------------------------|--
G|--------------------------|---------------------------------|--------------------------|--
D|--------7--8--7-----3--2--|-----------7--8--7-----10--8--5--|--------7--8--7-----3--2--|--
A|--------5--6--5-----1--0--|-----------5--6--5-----8---6--3--|--------5--6--5-----1--0--|--
D|--0--0--------------------|--0--0--0------------------------|--0--0--------------------|--

Stave 2:

E|----------------------------------------
B|----------------------------------------
G|----------------------------------------
D|--------7--8--7-----6----4--4--7--8--7--
A|--------5--6--5--------5\3--3--5--6--5--
D|--0--0----------------------------------

Stave 3:

E|----------------------|----------------------
B|----------------------|----------------------
G|----------------------|----------------------
D|--6----4--4--6--7--6--|--6----4--5--4--3--2--
A|-----5\3--3--5--6--5--|-----5\3--4--3--2--1--
D|----------------------|----------------------

Stave 4:

E|--------------------------------
B|--------------------------------
G|-----------3--------------------
D|-----------2-----------5--4--3--
A|-----------1-----------4--3--2--
D|--0--0--0-----0--0--0--3--2--1--

Stave 5:

E|-----------------------------
B|-----------------------------
G|-----------------------------
D|-----1--0--------1--0--------
A|-----------1-----------1--3--
D|--0-----------0--------------

http://www.guitartabcreator.com
Guitar Tab Creator is intended to store guitar tab created through the tool. It currently does not support in-line text editing. Any text you place in here will be lost. If you need to comment on your tab, please use the "Tab Notes" section located below.