Sound will begin in 5 seconds

Flight

Chords
01234567891011121314151617181920212223
E
B
G
D
A
E
B
0 1 2 3 4 5 6 7 8 9 10 11 12 13 14 15 16 17 18 19 20 21 22 23
Top Courses in Music 160x600
(/) Slide Up  (\) Slide Down  (h) Hammer On  (p) Pull Off  (b) Bend (r) Release (v) Vibrato

Stave 1:

E|--5--5--3--3--3--3--0--
B|--3--3--3--5--5--5--0--
G|--4--4--4--4--4--4--0--
D|--5--5--5--5--5--5--2--
A|--3--3--3--3--3--3--2--
E|--3--3--3--3--3--3--0--

Stave 2:

E|--5--3--5--7--
B|--5--5--7--8--
G|--6--4--5--9--
D|--5--5--7--9--
A|--7--3--5--7--
E|--5--3--5--7--

Stave 3:

E|--1--1-----
B|--3--1--2--
G|--2--2--2--
D|--------2--
A|--------0--
E|-----------

http://www.guitartabcreator.com
Guitar Tab Creator is intended to store guitar tab created through the tool. It currently does not support in-line text editing. Any text you place in here will be lost. If you need to comment on your tab, please use the "Tab Notes" section located below.