Sound will begin in 5 seconds

Vibrant Spring

Chords
01234567891011121314151617181920212223
E
B
G
D
A
E
B
0 1 2 3 4 5 6 7 8 9 10 11 12 13 14 15 16 17 18 19 20 21 22 23
Song Science #1: How Pros Use 6 Chords to Write Hit Songs
(/) Slide Up  (\) Slide Down  (h) Hammer On  (p) Pull Off  (b) Bend (r) Release (v) Vibrato

Stave 1:

F|--------------------------------------------------
C|--------------------------------------------------
G|-----------6-----------6-----------6--7--6-----6--
D|-----5--7--------4--7--------4--7-----------7-----
A|--0-----------5-----------7-----------------------
E|--------------------------------------------------

Stave 2:

F|--------------------------------------------------
C|-----------------------------------------------4--
G|-----------6-----------6-----------6--7--6--------
D|-----5--7--------4--7--------4--7-----------7-----
A|--0-----------5-----------7-----------------------
E|--------------------------------------------------

Stave 3:

F|-----------4-----------------4--------
C|--------------4-----------------4-----
G|--------6--------6--------6--------6--
D|-----7-----------------7--------------
A|--0-----------------0-----------------
E|--------------------------------------

Stave 4:

F|-----------4-----------------4--------
C|--------------4-----------------4-----
G|--------6--------6--------6--------6--
D|-----7-----------------7--------------
A|--7-----------------5-----------------
E|--------------------------------------

Stave 5:

F|-----------4-----------------4--------
C|--------------4-----------------4-----
G|-----6--7--------7-----6--7--------7--
D|--4-----------------5-----------------
A|--------------------------------------
E|--------------------------------------

Stave 6:

F|-----------4-----------------4--------
C|--------------4-----------------4-----
G|--------------------------------------
D|-----6--7--------7-----6--7--------7--
A|--7-----------------7-----------------
E|--------------------------------------

Stave 7:

F|-----------4-----------------4--------
C|--------------4-----------------4-----
G|-----6--7--------7-----6--7--------6--
D|--4-----------------5-----------------
A|--------------------------------------
E|--------------------------------------

Stave 8:

F|-----------4-----------
C|--------------4--------
G|-----6--7--------7-----
D|--7-----------------7--
A|-----------------------
E|-----------------------

Stave 9:

F|--------------------------------------------------
C|--------------------------------------------------
G|-----------6-----------6-----------6--7--6-----6--
D|-----5--7--------4--7--------4--7-----------7-----
A|--0-----------5-----------7-----------------------
E|--------------------------------------------------

Stave 10:

F|--------------------------------------------------
C|-----------4-----------4-----------4--6--4-----4--
G|-----6--7--------6--7--------6--7-----------7-----
D|--------------------------------------------------
A|--0-----------5-----------7-----------------------
E|--------------------------------------------------

Stave 11:

F|--------------------------------------------------
C|--------4-----------4-----------4-----------4-----
G|-----------6-----------6-----------6-----------6--
D|-----5--7--------4--7--------4--7--------4--7-----
A|--0-----------5-----------7-----------7-----------
E|--------------------------------------------------

Stave 12:

F|--------------------------------------------------4--
C|--------4--------4--------4--4-----------4--------4--
G|--------------------------------6-----------6-----6--
D|-----5--7-----4--7-----4--7--------7--------------7--
A|--0--------5--------7-----------------5-----------0--
E|-----------------------------------------------------

http://www.guitartabcreator.com
Guitar Tab Creator is intended to store guitar tab created through the tool. It currently does not support in-line text editing. Any text you place in here will be lost. If you need to comment on your tab, please use the "Tab Notes" section located below.