Sound will begin in 5 seconds

Marty Minor Blues Licks

Chords
01234567891011121314151617181920212223
E
B
G
D
A
E
B
0 1 2 3 4 5 6 7 8 9 10 11 12 13 14 15 16 17 18 19 20 21 22 23
Song Science #1: How Pros Use 6 Chords to Write Hit Songs
(/) Slide Up  (\) Slide Down  (h) Hammer On  (p) Pull Off  (b) Bend (r) Release (v) Vibrato

Stave 1:

E|--10b12--8--10----------8v-------------------------17-
B|----------------10--10------10p8-------------------17\
G|----------------------------------9--5h7\8\7p5--------
D|------------------------------------------------7--7--
A|------------------------------------------------------
E|------------------------------------------------------

Stave 2:

E|--12--15--13--12h13--12h13--12h13--12h13-----------------------------------------------
B|------------------------------------------12--15--13--12h13--12h13--12h13--------------
G|---------------------------------------------------------------------------12--14--14--
D|---------------------------------------------------------------------------------------
A|---------------------------------------------------------------------------------------
E|---------------------------------------------------------------------------------------

Stave 3:

E|-------------------------------------------------------
B|-------------------------------------------------------
G|--12h14--14p12--9--12p9--7--9p7--5--7p5----------------
D|-----------------------------------------5--5/7--7--7--
A|-------------------------------------------------------
E|-------------------------------------------------------

Stave 4:

E|-------------------------------10--12--
B|--------------------10--12\13----------
G|-----------------9---------------------
D|----------9--10------------------------
A|--11--12-------------------------------
E|---------------------------------------

http://www.guitartabcreator.com
Guitar Tab Creator is intended to store guitar tab created through the tool. It currently does not support in-line text editing. Any text you place in here will be lost. If you need to comment on your tab, please use the "Tab Notes" section located below.