Sound will begin in 5 seconds

photograph

Chords
01234567891011121314151617181920212223
E
B
G
D
A
E
B
0 1 2 3 4 5 6 7 8 9 10 11 12 13 14 15 16 17 18 19 20 21 22 23
Song Science #1: How Pros Use 6 Chords to Write Hit Songs
(/) Slide Up  (\) Slide Down  (h) Hammer On  (p) Pull Off  (b) Bend (r) Release (v) Vibrato

Capo Fret 3

Stave 1:

E|-------------------------
B|-----3--2--3-------------
G|-----------------0-------
D|--------------------3h2--
A|--0-----------0----------
E|-------------------------

Stave 2:

E|--x--x--x--x--
B|--x--2--0--x--
G|--0--4--2--0--
D|--3--4--2--0--
A|--2--x--x--2--
E|--0--x--x--3--

Stave 3:

E|--------------x-----------------------------------------------------------------------x--x--x--|--
B|--------------x-----------------------------------------------------------------------0--x--x--|--
G|--------------0-----------------------------------------------------------------------2--0--0--|--
D|--2--2--0--2--2--2--2--0--2--------3--------3--------3-----3--0--0--2-----0--0--5--4--2--0--0--|--
A|--0-----------3--------------1--1-----2--2-----2--2-----2-----0--0-----4-----0--------x--2--2--|--
E|--------------0--------------0--------------------------------0-----------------------x--3--3--|--

Stave 4:

E|-----------------x-------------------------------------------------------------------------------------
B|-----------------x-------------------------------------------------------------------------------------
G|-----------------0-------------------------------------------------------------------------------------
D|-----2--2--0--2--2--------2--2--0--2--------3--------3--------3-----3--0--0--2-----0--0-----5--4--1p0--
A|--0--------------3--0--0--------------1--1-----2--2-----2--2-----2-----0--0-----4-----0--4-------------
E|--0--------------0--0-----------------0--------------------------------0-------------------------------

Stave 5:

E|----------
B|----------
G|----------
D|--0-------
A|-----4h5--
E|-----0----

Stave 6:

E|------------------------------------------------------------------------------------------------------
B|-----------------------------0------------------------------------------------------------------------
G|-----------------------------0------------------------------------------------------------------------
D|--0--0--0--0--0--0--2--4--4--4--0--0--0--0--0--0--2--4--4--2h0--0h2--6--4h3h4--2p0--0--6--4h3h4--2p0--
A|--0--------0--------------------0--------0--------------4-------0-------------------0-----------------
E|--0--------0-----------------0--0--------0--------0--0--4-------0----0--------------0-----0-----------

Stave 7:

E|-----------------------
B|-----------------------
G|-----------------------
D|--0--6--4h3h4--2p0--2--
A|--0-----------------0--
E|--0-----0-----------0--

Stave 8:

E|--0--0--2--4-----x--------x--4--4--x--5--4--------4-----x--------x--4--4--4--5--4--------4-----x-----
B|-----------------x--------x--5--5--x--6--0--7--5--------x--7-----x--5--5--5--6--0--7--5--------x--7--
G|--1--1--2--4-----x--4-----x--0-----x--------------5-----x--5-----x-----------------------5-----x--5--
D|-----------------x--------x--------x--------------------x--------x-----------------------------x-----
A|-----------------x--------x--------x--------------------x--------x-----------------------------x-----
E|--------------0--x-----0--x--------x-----------------0--x-----0--x--0-----------------------0--x-----

Stave 9:

E|-----x--4--4--x--5--4--------------x--------x-----x--0--0--
B|-----x--0--0--x--0-----8--7--7-----x--5--5--x--4--x--4--5--
G|-----x--------x--------------0-----x--5--5--x--5--x--------
D|-----x--------x--------------------x--0--0--x-----x--------
A|-----x--------x--------------------x--------x-----x--------
E|--0--x--0-----x--0--------------0--x--------x-----x--------

http://www.guitartabcreator.com
Guitar Tab Creator is intended to store guitar tab created through the tool. It currently does not support in-line text editing. Any text you place in here will be lost. If you need to comment on your tab, please use the "Tab Notes" section located below.