Sound will begin in 5 seconds

e sono solo un uomo

Chords
01234567891011121314151617181920212223
E
B
G
D
A
E
B
0 1 2 3 4 5 6 7 8 9 10 11 12 13 14 15 16 17 18 19 20 21 22 23
Top Courses in Music 160x600
(/) Slide Up  (\) Slide Down  (h) Hammer On  (p) Pull Off  (b) Bend (r) Release (v) Vibrato

Capo Fret 3

Stave 1:

E|--1--3--2--5--4--3--2--0--|--------------------2--2--2--|--|-----1-----1h2--2-----1-----------------
B|--2--4--3--6--5--4--3-----|--0-----0-----0--------------|--|--0----------------------1-----1--------
G|--1--3--2--5--4--3--2--2--|-----------0--------------0--|--|--0--0-------------0--------------0-----
D|-----------------------2--|-----0-----------0-----0--0--|--|--------0-------------------0-----------
A|--------------------------|--0--------------------------|--|-------------------------------------0--
E|--------------------------|-----------------------------|--|----------------------------------------

Stave 2:

E|--0h1h0--|--|--------------------2--2--2--|--|-----1-----1h2--2-----------------------------------|--|--
B|---------|--|--0-----0-----0--------------|--|--0-------------------0-----3-----3--3-----3--------|--|--
G|---------|--|-----------0--------------0--|--|--0--0-------------0-----------0--------------0-----|--|--
D|---------|--|-----0-----------0-----0--0--|--|--------0----------------0--------0-----------------|--|--
A|---------|--|--0--------------------------|--|----------------------------------------0--------0--|--|--
E|---------|--|-----------------------------|--|----------------------------------------------------|--|--

Stave 3:

E|--0-----0-----0-----0--------|--|--------------------------------|--|--1--3-----2-----0--------0-----|--
B|-----------0-----------3-----|--|--0--1-----1-----1-----1--3-----|--|--0-----------------0--3--0-----|--
G|-----0-----------0-----------|--|--------------0--------0-----0--|--|--0-----------0--------0-----0--|--
D|-----------------------------|--|--------0-----------0-----------|--|--------0-----------------------|--
A|--------------------------0--|--|--------------------------------|--|--------------------------------|--
E|-----------------------------|--|--------------------------------|--|--------------------------------|--

Stave 4:

E|--0-----0-----0--|--|--2--0--|--|--|--|--
B|-----3-----------|--|--0-----|--|--|--|--
G|-----------0-----|--|--------|--|--|--|--
D|-----------------|--|--------|--|--|--|--
A|-----------------|--|--------|--|--|--|--
E|-----------------|--|--------|--|--|--|--

Stave 5:

E|-----2-----2-----2-----2--3-----3--|--|--3--4--5-----5--|--|--
B|--2--------------------------------|--|--0--------0-----|--|--
G|--0--------------------------------|--|-----------------|--|--
D|--0--------------------------0-----|--|-----------------|--|--
A|--------0-----0-----0--------------|--|-----------------|--|--
E|-----------------------------------|--|-----------------|--|--

Stave 6:

E|--1--7-----7-----7-----7-----7-----7--7--7--5--5-----5--5--5--
B|--0-----0-----0-----0-----0-----0-----0--0--------0-----0--0--
G|--0-----------------------------------0-----------------0--0--
D|--0-----------------------------------0-----------------0--0--
A|--------------------------------------------------------------
E|--------------------------------------------------------------

Stave 7:

E|----------------------------------------------------|--|--
B|--0--6-----6-----6-----6--4-----4--4--4h2--6-----6--|--|--
G|--0-----0-----0-----0--------0-----0----------0-----|--|--
D|--0--------------------------------0----------------|--|--
A|----------------------------------------------------|--|--
E|----------------------------------------------------|--|--

Stave 8:

E|------------------------------------------------------|--|-----------------
B|--0--4-----4-----4-----4-----4-----4--4--4h6h4-----4--|--|--4--2--2-----2--
G|--0-----0-----0-----0-----0-----0-----0---------0-----|--|--0--0-----0-----
D|--0-----------------------------------0---------------|--|--0--------------
A|------------------------------------------------------|--|-----------------
E|------------------------------------------------------|--|-----------------

http://www.guitartabcreator.com
Guitar Tab Creator is intended to store guitar tab created through the tool. It currently does not support in-line text editing. Any text you place in here will be lost. If you need to comment on your tab, please use the "Tab Notes" section located below.