Sound will begin in 5 seconds

Kai and Josh's song again

01234567891011121314151617181920212223
E
B
G
D
A
E
B
0 1 2 3 4 5 6 7 8 9 10 11 12 13 14 15 16 17 18 19 20 21 22 23
Song Science #1: How Pros Use 6 Chords to Write Hit Songs
(/) Slide Up  (\) Slide Down  (h) Hammer On  (p) Pull Off  (b) Bend (r) Release (v) Vibrato

Stave 1:

E|--------------------------------------------------------------------------------
B|--------------------------------------------------------------------------------
G|-----7-----9b11--9--7-----7---------------------------------7-----7--9--9/11\7--
D|--9-----9--------------9-----9--7------------------------9-----9----------------
A|-----------------------------------9--------9/10v-------------------------------
E|--------------------------------------------------------------------------------

Stave 2:

E|--------------------------------------------------------------------------------------------------
B|--12--10--------------12--10----------------------------------------------------------------------
G|----------12--11--------------12--11--------------------------------------------------------------
D|------------------12------------------12--11--12--12/14--14\9--9--7-------------------------------
A|---------------------------------------------------------------------9--9/12--10--10--10--9/12p0--
E|--------------------------------------------------------------------------------------------------

Stave 3:

E|------------------------------------------------------------------------------12--15v--
B|----------------------------10--------12v-------------12----------15-------------------
G|--------11--------12--------------------------11--11------11--11------11--11-----------
D|--9--9------9--9------9--9------9--9---------------------------------------------------
A|---------------------------------------------------------------------------------------
E|---------------------------------------------------------------------------------------

Stave 4:

E|--15b17--
B|---------
G|---------
D|---------
A|---------
E|---------

http://www.guitartabcreator.com
Guitar Tab Creator is intended to store guitar tab created through the tool. It currently does not support in-line text editing. Any text you place in here will be lost. If you need to comment on your tab, please use the "Tab Notes" section located below.