Sound will begin in 5 seconds

Rhodok Town

Chords
01234567891011121314151617181920212223
E
B
G
D
A
E
B
0 1 2 3 4 5 6 7 8 9 10 11 12 13 14 15 16 17 18 19 20 21 22 23
Song Science #1: How Pros Use 6 Chords to Write Hit Songs
(/) Slide Up  (\) Slide Down  (h) Hammer On  (p) Pull Off  (b) Bend (r) Release (v) Vibrato

Stave 1:

E|--------------------------------------
B|------------------8-------------------
G|--7--8--7------7-----10--8--7--8------
D|-----------10---------------------10--
A|--------------------------------------
E|--------------------------------------

Stave 2:

E|-----------------------------------
B|------------------8----------------
G|--7--8--7------7------------7------
D|-----------10--------9--10---------
A|-------------------------------10--
E|-----------------------------------

Stave 3:

E|--------------------------------
B|--6--8--6-----------------------
G|-----------7--8--6--8--6-----5--
D|--------------------------8-----
A|--------------------------------
E|--------------------------------

Stave 4:

E|-----------------------
B|-----------------------
G|-----0--------------4--
D|--6-----3--5--6--4-----
A|-----------------------
E|-----------------------

Stave 5:

E|-----------------
B|-----------------
G|-----------------
D|-----------------
A|-----------------
E|-----------------

Stave 6:

E|--------------------------------------
B|------------------8-------------------
G|--7--8--7------7-----10--8--7--8------
D|-----------10---------------------10--
A|--------------------------------------
E|--------------------------------------

Stave 7:

E|----------------------------------
B|------------------8---------------
G|--7--8--7------7------------7-----
D|-----------10--------9--10-----9--
A|----------------------------------
E|----------------------------------

Stave 8:

E|-----------------8--------------------
B|--6--8--6--------------------------8--
G|-----------7--8-----6--8--6-----5-----
D|-----------------------------8--------
A|--------------------------------------
E|--------------------------------------

Stave 9:

E|-----------------------
B|-----------------------
G|--8--7--5--7--8-----0--
D|-----------------6-----
A|-----------------------
E|-----------------------

Stave 10:

E|--------------------
B|--------------------
G|--------------------
D|--------------------
A|--3--------1--------
E|--------------------

Stave 11:

E|-----8-----8--6--------------------
B|-----------------9--9-----9p8p6h8--
G|-----------------------------------
D|-----------------------------------
A|-----------------------------------
E|-----------------------------------

Stave 12:

E|--------------------------
B|-----4-----4-----3-----3--
G|--------5-----------3-----
D|--------------------------
A|--------------------------
E|--------------------------

Stave 13:

E|--------------------------------------
B|-----1-----1--------------------------
G|--------1-----------1-----0-----------
D|-----------------5-----3-----1--3--0--
A|--------------------------------------
E|--------------------------------------

Stave 14:

E|--10--11--10--8--10--15--13--11--10--11--8--
B|--------------------------------------------
G|--------------------------------------------
D|--------------------------------------------
A|--------------------------------------------
E|--------------------------------------------

Stave 15:

E|--10--11--10--8--10--15------8--------------
B|-------------------------12-----12--10--12--
G|--------------------------------------------
D|--------------------------------------------
A|--------------------------------------------
E|--------------------------------------------

Stave 16:

E|---------8-------------------------------
B|--9--11-----11--9--8---------------------
G|----------------------10--8--7--8--7--0--
D|-----------------------------------------
A|-----------------------------------------
E|-----------------------------------------

Stave 17:

E|--------------------------
B|--------------------------
G|--8-----8--6--5--7--5--4--
D|--------------------------
A|--------------------------
E|--------------------------

Stave 18:

E|--------6-----6-----------4-----4-----------3-----3--------------------
B|-----8-----------------6-----------------4-----------------------------
G|--8--------------8--6--------------6--5--------------5--5-----5p4p2h4--
D|-----------------------------------------------------------------------
A|-----------------------------------------------------------------------
E|-----------------------------------------------------------------------

Stave 19:

E|-----------------------
B|--4-----------4--------
G|--5-----------5--------
D|--5-----------5--------
A|-----------------------
E|-----------------------

Stave 20:

E|--------------------------------------
B|--------6--7--------------------------
G|--7--8-----------7-----------8-----4--
D|--------------------5--6-----------5--
A|--------------------------------------
E|--------------------------------------

http://www.guitartabcreator.com
Guitar Tab Creator is intended to store guitar tab created through the tool. It currently does not support in-line text editing. Any text you place in here will be lost. If you need to comment on your tab, please use the "Tab Notes" section located below.