Sound will begin in 5 seconds

Alternate Californication Solo

Chords
01234567891011121314151617181920212223
E
B
G
D
A
E
B
0 1 2 3 4 5 6 7 8 9 10 11 12 13 14 15 16 17 18 19 20 21 22 23
Top Courses in Music 160x600
(/) Slide Up  (\) Slide Down  (h) Hammer On  (p) Pull Off  (b) Bend (r) Release (v) Vibrato

Stave 1:

E|------------9-------------------------------------------------------------9-----------------------------------
B|--10-----------------12b14r12p10------------10------------------10-----------------12b14r12p10------------10--
G|----------------------------------11--------11--------11----------------------------------------11--------11--
D|--------------------------------------------------------------------------------------------------------------
A|--------------------------------------------------------------------------------------------------------------
E|--------------------------------------------------------------------------------------------------------------

Stave 2:

E|-----------------------------------------------------------------------12-----10-----9---------------------------------
B|-----------------------------10-------------------14---------------------------------------12-----10-----12-----12/14--
G|--------11------------11-------------------11-------------------11-----------------------------------------------------
D|---------------12-------------------12-------------------12------------------------------------------------------------
A|-----------------------------------------------------------------------------------------------------------------------
E|-----------------------------------------------------------------------------------------------------------------------

Stave 3:

E|---------------------------------14b16r14--------17-----17--16--14--17--16--14--17--16--14--17--16--14-----17-----19b21r19--
B|-----14-----12------------12------------------------------------------------------------------------------------------------
G|-------------------14-------------------------------------------------------------------------------------------------------
D|----------------------------------------------------------------------------------------------------------------------------
A|----------------------------------------------------------------------------------------------------------------------------
E|----------------------------------------------------------------------------------------------------------------------------

Stave 4:

E|-----17------------17-----21p17------21p17------21p17------21p17------21p17---------22p17------22p17------22p17------
B|------------19-------------------19---------19---------19---------19---------19------------19---------19---------19--
G|---------------------------------------------------------------------------------------------------------------------
D|---------------------------------------------------------------------------------------------------------------------
A|---------------------------------------------------------------------------------------------------------------------
E|---------------------------------------------------------------------------------------------------------------------

Stave 5:

E|--22p17------22p17----------------17-----19b21r19-----17---------------------------------------------------------------------
B|---------19---------19-----17--------------------------------19-----17-----19-----14-----17--15--14--17--15--14--17--15--14--
G|-----------------------------------------------------------------------------------------------------------------------------
D|-----------------------------------------------------------------------------------------------------------------------------
A|-----------------------------------------------------------------------------------------------------------------------------
E|-----------------------------------------------------------------------------------------------------------------------------

Stave 6:

E|---------------------------------------17------------------------------------
B|--17--15--14--17--15--14---------------14----------------------15--14--------
G|-----------------------------16b18------------18r16-----14----------------14\
D|-----------------------------------------------------------------------------
A|-----------------------------------------------------------------------------
E|-----------------------------------------------------------------------------

http://www.guitartabcreator.com
Guitar Tab Creator is intended to store guitar tab created through the tool. It currently does not support in-line text editing. Any text you place in here will be lost. If you need to comment on your tab, please use the "Tab Notes" section located below.