Sound will begin in 5 seconds

Juniper Arms

Chords
01234567891011121314151617181920212223
E
B
G
D
A
E
B
0 1 2 3 4 5 6 7 8 9 10 11 12 13 14 15 16 17 18 19 20 21 22 23
Top Courses in Music 160x600
(/) Slide Up  (\) Slide Down  (h) Hammer On  (p) Pull Off  (b) Bend (r) Release (v) Vibrato

Stave 1:

E|--------------0-----------------------------0-----------------------------------3--2--0--
B|--2--2--2--------2--------------------0-----------------------------------0-----0--0--0--
G|--------------------2--0-----------0-----0-----------0--2--0-----------0-----0-----------
D|--------------------------------2-----------------2-----------------0--------------------
A|--0--------2-----------------------------------------------------------------------------
E|--------------------------0-----------------------------------3--------------------------

Stave 2:

E|--------------------------------------------------------0--------
B|--------------2-----------------2-----------------2--------2-----
G|-----------2-----2-----------2-----2-----------2-----2--------2--
D|--------2-----------------2-----------------2--------------------
A|--0-----------------------------------0-----------------0--------
E|--------------------0--------------------------------------------

Stave 3:

E|--------------------0-----------------------------------3--2--0--
B|--------------0-----------------0-----------------0-----0--0--0--
G|-----------0-----0-----------0-----0-----------0-----0-----------
D|--------2-----------------2-----------------0--------------------
A|-----------------------------------------------------------------
E|--0-----------------------------------3--------------------------

Stave 4:

E|--------------------------------------------------------3-----------------
B|--------------2-----------------2-----------------0-----------------0-----
G|-----------2-----2-----------2-----2-----------0-----0-----------0-----0--
D|--------2-----------------2-----------------0-----------------0-----------
A|--0-----------------------------------------------------------------------
E|--------------------0-----------------3-----------------------------------

Stave 5:

E|-----------------------------------------------------------
B|--------------2-----------------2-----------------2--------
G|-----------2-----2-----------2-----2-----------2-----2-----
D|--------2-----------------2-----------------2--------------
A|--0-----------------------------------0-----------------0--
E|--------------------0--------------------------------------

Stave 6:

E|--0-----------------------------------3--------------------------
B|--0-----------------------------------0--------------------------
G|--0-----------------------------------0--------------------------
D|--2-----------------------------------0--------------------------
A|--2-----------------------------------2--------------------------
E|--0-----------------------------------3--------------------------

Stave 7:

E|--0-----------------------------------0--------------------------
B|--2-----------------------------------2--------------------------
G|--2-----------------------------------2--------------------------
D|--2-----------------------------------2--------------------------
A|--0-----------------------------------0--------------------------
E|-----------------------------------------------------------------

http://www.guitartabcreator.com
Guitar Tab Creator is intended to store guitar tab created through the tool. It currently does not support in-line text editing. Any text you place in here will be lost. If you need to comment on your tab, please use the "Tab Notes" section located below.