Sound will begin in 5 seconds

the logical song

Chords
01234567891011121314151617181920212223
E
B
G
D
A
E
B
0 1 2 3 4 5 6 7 8 9 10 11 12 13 14 15 16 17 18 19 20 21 22 23
Top Courses in Music 160x600
(/) Slide Up  (\) Slide Down  (h) Hammer On  (p) Pull Off  (b) Bend (r) Release (v) Vibrato

Stave 1:

E|--------------------------------------0--0--0--------------
B|--5-----------------5--------------2--9--9--9--3--3--3--3--
G|--6--6--4--8--6--3--6--6--4--8--6--3--9--6--6--2--2--2--2--
D|--6--7--7--9--7--4--6--7--7--9--7--2--9--9--7--0-----------
A|--4--7--7--9--7--4--4--7--7--9--7--1--------------4--2--0--
E|-----5--4--7--5--2-----5--4--7--5-----0--0--0--------------

Stave 2:

E|--------------------
B|--------------------
G|--------------------
D|--------------------
A|--------------------
E|-----------------6--

http://www.guitartabcreator.com
Guitar Tab Creator is intended to store guitar tab created through the tool. It currently does not support in-line text editing. Any text you place in here will be lost. If you need to comment on your tab, please use the "Tab Notes" section located below.