Sound will begin in 5 seconds

1

01234567891011121314151617181920212223
E
B
G
D
A
E
B
0 1 2 3 4 5 6 7 8 9 10 11 12 13 14 15 16 17 18 19 20 21 22 23
Song Science #1: How Pros Use 6 Chords to Write Hit Songs
(/) Slide Up  (\) Slide Down  (h) Hammer On  (p) Pull Off  (b) Bend (r) Release (v) Vibrato

Stave 1:

E|-----------------------------------------------------------------------
B|-----------------------------------------------------------------------
G|--------------------------------0-----------------------------------0--
D|--------2-----2--------2-----2--------------2-----2--------2-----2-----
A|-----2-----2--------2-----2--------------2-----2--------2-----2--------
E|--3--------------3--------------------3--------------3-----------------

Stave 2:

E|-----------------
B|-----------------
G|--2--3--4--------
D|-----------4-----
A|--------------4--
E|-----------------

Stave 3:

E|-----------------------------------------------------------------------------------------------------------
B|-----------------------------------------------------------------------------------------------------------
G|-----------0-----------------------------------0-----------------------------------0-----------------------
D|--------4-----4-----------3-----------------4-----4-----------3-----------------4-----4-----------3--------
A|-----4-----------4--3--0-----3--4--------4-----------4--3--0-----3--4--------4-----------4--3--0-----3--4--
E|--5-----------------------------------5-----------------------------------5--------------------------------

Stave 4:

E|--------------------------------------------------------------------------
B|--------------------------------------------------------------------------
G|--------------------------------------------------------------------------
D|--------------------------------------------------------------------------
A|--3-----3--3-----2--3--2-----2--2--3--2--3-----3--3-----4--3--4-----4--4--
E|--------------------------------------------------------------------------

Stave 5:

E|-----------------------------------------------------------------------------
B|-----------------------------------------------------------------------------
G|-----------------------------------0--------------------------------------0--
D|--------1-----1-----------1-----1--------------1-----1-----------1-----1-----
A|-----1-----1-----------1-----1--------------1-----1-----------1-----1--------
E|--2-----------------2--------------------2-----------------2-----------------

Stave 6:

E|-----------------
B|-----------------
G|--1--2--3--------
D|-----------3-----
A|--------------3--
E|-----------------

Stave 7:

E|-----------------------------------------------------------------------------------------------------------
B|-----------------------------------------------------------------------------------------------------------
G|-----------0-----------------------------------0-----------------------------------0-----------------------
D|--------3-----3-----------2-----------------3-----3-----------2-----------------3-----3-----------2--------
A|-----3-----------3--2--0-----2--3--------3-----------3--2--0-----2--3--------3-----------3--2--0-----2--3--
E|--4-----------------------------------4-----------------------------------4--------------------------------

Stave 8:

E|-----------------------------------------------------------------------------
B|-----------------------------------------------------------------------------
G|-----------------------------------------------------------------------------
D|-----------------------------------------------------------------------------
A|--3-----3--3-----2--3--2-----2--2-----3--2--3-----3--3-----4--3--4-----4--4--
E|-----------------------------------------------------------------------------

Stave 9:

E|--13--13--13--13--13--12--11---------------------------------------------
B|------------------------------------------13--12--11---------------------
G|------------------------------11--12--13---------------------------------
D|------------------------------------------------------11b11--12--13--12--
A|-------------------------------------------------------------------------
E|-------------------------------------------------------------------------

http://www.guitartabcreator.com
Guitar Tab Creator is intended to store guitar tab created through the tool. It currently does not support in-line text editing. Any text you place in here will be lost. If you need to comment on your tab, please use the "Tab Notes" section located below.