Sound will begin in 5 seconds

New Riff

Chords
01234567891011121314151617181920212223
E
B
G
D
A
E
B
0 1 2 3 4 5 6 7 8 9 10 11 12 13 14 15 16 17 18 19 20 21 22 23
Song Science #1: How Pros Use 6 Chords to Write Hit Songs
(/) Slide Up  (\) Slide Down  (h) Hammer On  (p) Pull Off  (b) Bend (r) Release (v) Vibrato

Stave 1:

E|----------------------------------------------------------------|--
B|-----------------------------15---------------------------------|--
G|----------16------14h16--------------16------14----------14h16--|--
D|--14--14------14---------14------14------14------14--14---------|--
A|----------------------------------------------------------------|--
E|----------------------------------------------------------------|--

Stave 2:

E|--------------|----------------|--------------|--------------|--
B|--------------|----------------|--------------|--------------|--
G|--------------|----------------|--------------|--------------|--
D|--2-----2-----|--10-----10-----|--5-----5-----|--4--4-----8--|--
A|--2-----2-----|--10-----10-----|--5-----5-----|--4--4-----8--|--
E|--0-----0-----|--8------8------|--3-----3-----|--2--2-----6--|--

Stave 3:

E|-----------------------------|-------------------------------------|--
B|-----------------------------|--15---------------------------------|--
G|----------16------14h16------|----------16------14----------14h16--|--
D|--14--14------14---------14--|------14------14------14--14---------|--
A|-----------------------------|-------------------------------------|--
E|-----------------------------|-------------------------------------|--

Stave 4:

E|-----------------------------|-------------------------------------|--
B|-----------------------------|--15---------------------------------|--
G|----------16------14h16------|----------16------14----------14h15--|--
D|--14--14------14---------14--|------14------14------14--14---------|--
A|-----------------------------|-------------------------------------|--
E|-----------------------------|-------------------------------------|--

Stave 5:

E|-----------------------------|-------------------------------------|--
B|-----------------------------|-------------------------------------|--
G|-----------------------------|--15---------------------------------|--
D|----------16------14h16------|----------16------14----------14h16--|--
A|--14--14------14---------14--|------14------14------14--14---------|--
E|-----------------------------|-------------------------------------|--

Stave 6:

E|--------------|----------------|--------------|--------------|--
B|--------------|----------------|--------------|--------------|--
G|--------------|----------------|--------------|--------------|--
D|--2-----2-----|--10-----10-----|--5-----5-----|--7--7-----3--|--
A|--2-----2-----|--10-----10-----|--5-----5-----|--7--7-----3--|--
E|--0-----0-----|--8------8------|--3-----3-----|--5--5-----1--|--

Stave 7:

E|--
B|--
G|--
D|--
A|--
E|--

http://www.guitartabcreator.com
Guitar Tab Creator is intended to store guitar tab created through the tool. It currently does not support in-line text editing. Any text you place in here will be lost. If you need to comment on your tab, please use the "Tab Notes" section located below.