Sound will begin in 5 seconds

Broken Vessels Guitar Leads

Chords
01234567891011121314151617181920212223
E
B
G
D
A
E
B
0 1 2 3 4 5 6 7 8 9 10 11 12 13 14 15 16 17 18 19 20 21 22 23
Song Science #1: How Pros Use 6 Chords to Write Hit Songs
(/) Slide Up  (\) Slide Down  (h) Hammer On  (p) Pull Off  (b) Bend (r) Release (v) Vibrato

Stave 1:

E|--------------------------------------------------------
B|--------3--1--0----------------3------------------------
G|--------------------0-----2h4-----4--0-----2h4--2p0-----
D|--2--------------------------------------------------0--
A|--------------------------------------------------------
E|--------------------------------------------------------

Stave 2:

E|--------------------------------------
B|--------------------------------------
G|--------------------------------------
D|--2-----4--------5--------2--4--5--2--
A|--3-----5--------7--------3--5--7--3--
E|--------------------------------------

Stave 3:

E|----------------------------------------------
B|----------------------------------------------
G|----------------------------------------------
D|--9------4-----5-----2-----9------4--5-----2--
A|--10-----5-----7-----3-----10-----5--7-----3--
E|----------------------------------------------

Stave 4:

E|------------------7-------------------------7-------------------------7---------8--7---------8--7------
B|--8-----8-----10-----10--8--8-----8-----10-----10--8--8-----8-----10-----10--8--------10--8--------10--
G|-----7-----7-------------------7-----7-------------------7-----7---------------------------------------
D|-------------------------------------------------------------------------------------------------------
A|-------------------------------------------------------------------------------------------------------
E|-------------------------------------------------------------------------------------------------------

http://www.guitartabcreator.com
Guitar Tab Creator is intended to store guitar tab created through the tool. It currently does not support in-line text editing. Any text you place in here will be lost. If you need to comment on your tab, please use the "Tab Notes" section located below.