Sound will begin in 5 seconds

Many of Horror

Chords
01234567891011121314151617181920212223
E
B
G
D
A
E
B
0 1 2 3 4 5 6 7 8 9 10 11 12 13 14 15 16 17 18 19 20 21 22 23
Song Science #1: How Pros Use 6 Chords to Write Hit Songs
(/) Slide Up  (\) Slide Down  (h) Hammer On  (p) Pull Off  (b) Bend (r) Release (v) Vibrato

Stave 1:

E|-----------------------------------------------------------
B|-----------------------------------------------------------
G|--7--9---11--------2--4--6--------12--11--7-----12--11--6--
D|-----------------------------------------------------------
A|-----------------------------------------------------------
D|--9--11--12--------4--5--7--------14--12--9-----14--12--7--

Stave 2:

E|----------------------------
B|----------------------------
G|--7--9/11--4--------2/7--4--
D|----------------------------
A|----------------------------
D|--9--------5----------------

Stave 3:

E|--2--------2--------3--
B|--3--------3--------3--
G|--2--------4-----------
D|-----------4-----------
A|-----------2-----------
D|--------------------5--

http://www.guitartabcreator.com
Guitar Tab Creator is intended to store guitar tab created through the tool. It currently does not support in-line text editing. Any text you place in here will be lost. If you need to comment on your tab, please use the "Tab Notes" section located below.