Sound will begin in 5 seconds

GRADUATION

01234567891011121314151617181920212223
E
B
G
D
A
E
B
0 1 2 3 4 5 6 7 8 9 10 11 12 13 14 15 16 17 18 19 20 21 22 23
Song Science #1: How Pros Use 6 Chords to Write Hit Songs
(/) Slide Up  (\) Slide Down  (h) Hammer On  (p) Pull Off  (b) Bend (r) Release (v) Vibrato

Stave 1:

G|-----------------------------------------------------
D|-------------------------------------------------3-1-
A|-------------6-6-4-4-3-3-4-6-1-1-1-1-1/3-4-4-4-4-----
E|-4-4-4-4-4-4-----------------------------------------

Stave 2:

G|-----------------------------------------------------
D|-------------------------------------------------3-1-
A|-------------6-6-4-4-3-3-4-6-----------3-4-4-4-4-----
E|-4-4-4-4-4-4-----------------1-1-1-1-1---------------

Stave 3:

G|------------------------------------------------------
D|-------------------------------------------------8-10-
A|-------------------------------------11-11-11-11------
E|-4-4-4-4-4-4-6-6-6-8-8-8-9-9-9-9-9-9------------------

Stave 4:

G|-------------------------------------------------------------
D|-----------5-5-----------------------------------------------
A|---------------6-6-6-8-8-8-8-3-3-3-3-3-4-4-3-3-4-4-6-6-4-3-1-
E|-4-4-4-4-4---------------------------------------------------

Stave 5:

G|-------------------------------------------------------
D|-------------------------------------------------------
A|-------------------------8-8-8-8-6-6-6-6-4-4-4-4-3-4-3-
E|-4-4-4-4-4-4-3-3-3-1-1-1-------------------------------

http://www.guitartabcreator.com
Guitar Tab Creator is intended to store guitar tab created through the tool. It currently does not support in-line text editing. Any text you place in here will be lost. If you need to comment on your tab, please use the "Tab Notes" section located below.