Sound will begin in 5 seconds

Bohemian Rhapsody

01234567891011121314151617181920212223
E
B
G
D
A
E
B
0 1 2 3 4 5 6 7 8 9 10 11 12 13 14 15 16 17 18 19 20 21 22 23
Song Science #1: How Pros Use 6 Chords to Write Hit Songs
(/) Slide Up  (\) Slide Down  (h) Hammer On  (p) Pull Off  (b) Bend (r) Release (v) Vibrato

Stave 1:

E|------------------8--8--10--11--8--10--11--13------13--15--16--18--20--18--16--15--16--15h16r15--
B|-----------11--8-------------------------------13------------------------------------------------
G|-----10b8----------------------------------------------------------------------------------------
D|--8----------------------------------------------------------------------------------------------
A|-------------------------------------------------------------------------------------------------
E|-------------------------------------------------------------------------------------------------

Stave 2:

E|--------------------------------------------------------15--16--18----------------------15--16--18--20--
B|--18--16--15--16--15h16r15------------------15--16--18----------------------15--16--18------------------
G|----------------------------17--15--15--17--------------------------15--17------------------------------
D|--------------------------------------------------------------------------------------------------------
A|--------------------------------------------------------------------------------------------------------
E|--------------------------------------------------------------------------------------------------------

Stave 3:

E|--------------------------------------------------13-----9--9--9--9------
B|--15--16------15--16------15--16--18------------------9------------------
G|----------17----------17--------------10--12--13-------------------------
D|---------------------------------------------------------------------11--
A|-------------------------------------------------------------------------
E|-------------------------------------------------------------------------

http://www.guitartabcreator.com
Guitar Tab Creator is intended to store guitar tab created through the tool. It currently does not support in-line text editing. Any text you place in here will be lost. If you need to comment on your tab, please use the "Tab Notes" section located below.