Sound will begin in 5 seconds

confessions

01234567891011121314151617181920212223
E
B
G
D
A
E
B
0 1 2 3 4 5 6 7 8 9 10 11 12 13 14 15 16 17 18 19 20 21 22 23
Song Science #1: How Pros Use 6 Chords to Write Hit Songs
(/) Slide Up  (\) Slide Down  (h) Hammer On  (p) Pull Off  (b) Bend (r) Release (v) Vibrato

Stave 1:

G |--11--10--8-----------11--10--8-----------11--10--8-----------11--10--8--------
D |-------------8-------------------8-------------------8-------------------8-----
A |----------------6-------------------6-------------------6-------------------6--
Eb|-------------------------------------------------------------------------------

Stave 2:

G |--11--9--8-----------11--9--8-----------11--9--8-----------11--9--8--------
D |------------8------------------8------------------8------------------8-----
A |---------------7-------------------------------------6------------------6--
Eb|----------------------------------8----------------------------------------

Stave 3:

G |--11--10--8-----
D |-------------8--
A |----------------
Eb|----------------

Stave 4:

G |---------------------------------------------------------------------------------------------------
D |---------------------------------------------------------------------------------------------------
A |--6-----6-----6------------------------------------------------------------------------------------
Eb|-----------7--------0--3--5-----5--3--5-----5--7--8-----8--7--8-----8--5--7-----7--5--7-----7--10--

Stave 5:

G |---------------------------------------------------------------------------------------------------
D |---------------------------------------------------------------------------------------------------
A |--6--------6------------------------------------------------------------6--6--6--6--6--6--6--6--6--
Eb|--------7--------0--3--5-----5--3--5-----5--7--8-----8--7--8-----10--------------------------------

Stave 6:

G |-----------------------------------------------------------------------------------
D |--------------------------------------------------------------4-----------------3--
A |--4-----4-----2-----2--4--2--4-----4--5--6-----6-----4-----4-----6--4--6-----6-----
Eb|-----------------5--------------------------------------7--------------------------

Stave 7:

G |-----------------------------------------------------------------
D |--4-----4-----4--1--3-----3-----3--1--2-----2-----2-----2--4--2--
A |-----------------------------------------------------------------
Eb|-----------------------------------------------------------------

Stave 8:

G |-----------------------------------------------------------------------------------------------------
D |--------------------4-----------------------------------4--------------------------------------------
A |--2-----2--------2-----2--------2--1--1-----1--------1-----1--------1--0-----------------------------
Eb|--------------3--------------3--------------------3--------------3--------5-----5-----3--5--3--5/12--

Stave 9:

G |--
D |--
A |--
Eb|--

http://www.guitartabcreator.com
Guitar Tab Creator is intended to store guitar tab created through the tool. It currently does not support in-line text editing. Any text you place in here will be lost. If you need to comment on your tab, please use the "Tab Notes" section located below.