Sound will begin in 5 seconds

Trakunno

01234567891011121314151617181920212223
E
B
G
D
A
E
B
0 1 2 3 4 5 6 7 8 9 10 11 12 13 14 15 16 17 18 19 20 21 22 23
Song Science #1: How Pros Use 6 Chords to Write Hit Songs
(/) Slide Up  (\) Slide Down  (h) Hammer On  (p) Pull Off  (b) Bend (r) Release (v) Vibrato

Stave 1:

G|-----------------14--|--16--14------14--16---------14--16--|--21--19------19--21-----19--21--|--23--21--
D|--14-----14--17------|----------17-------------17----------|----------21---------------------|----------
A|---------------------|-------------------------------------|---------------------------------|----------
E|---------------------|-------------------------------------|---------------------------------|----------

Stave 2:

G|--19------19-------------|------------------21-------------|---------------------------------|----------
D|------21-------------19--|--21--19------19-------------19--|--21--19------19--21---------19--|--21--19--
A|-----------------22------|----------22-------------22------|----------22-------------22------|----------
E|-------------------------|---------------------------------|---------------------------------|----------

Stave 3:

G|-------------------------|----------------------
D|----------19---------19--|--21--19--------------
A|--22--19---------22------|----------22--21--19--
E|-------------------------|----------------------

http://www.guitartabcreator.com
Guitar Tab Creator is intended to store guitar tab created through the tool. It currently does not support in-line text editing. Any text you place in here will be lost. If you need to comment on your tab, please use the "Tab Notes" section located below.