Sound will begin in 5 seconds

Tether_chords

Chords
01234567891011121314151617181920212223
E
B
G
D
A
E
B
0 1 2 3 4 5 6 7 8 9 10 11 12 13 14 15 16 17 18 19 20 21 22 23
Song Science #1: How Pros Use 6 Chords to Write Hit Songs
(/) Slide Up  (\) Slide Down  (h) Hammer On  (p) Pull Off  (b) Bend (r) Release (v) Vibrato

Stave 1:

Eb|--------------
Bb|--------------
Gb|--7--7--5--3--
Db|--7--5--3--1--
Ab|--5--6--5--1--
Db|-----------1--

Stave 2:

Eb|-----5--------
Bb|-----6--------
Gb|-----7--------
Db|--5--8--3--1--
Ab|--5--5--3--1--
Db|--5--5--3--1--

Stave 3:

Eb|---------
Bb|---------
Gb|--12--3--
Db|--12--3--
Ab|--10--1--
Db|--10--1--

Stave 4:

Eb|--------
Bb|--3--6--
Gb|--0--0--
Db|--------
Ab|--3--6--
Db|--------

http://www.guitartabcreator.com
Guitar Tab Creator is intended to store guitar tab created through the tool. It currently does not support in-line text editing. Any text you place in here will be lost. If you need to comment on your tab, please use the "Tab Notes" section located below.