Sound will begin in 5 seconds

PointCloud_chords

Chords
01234567891011121314151617181920212223
E
B
G
D
A
E
B
0 1 2 3 4 5 6 7 8 9 10 11 12 13 14 15 16 17 18 19 20 21 22 23
Song Science #1: How Pros Use 6 Chords to Write Hit Songs
(/) Slide Up  (\) Slide Down  (h) Hammer On  (p) Pull Off  (b) Bend (r) Release (v) Vibrato

Stave 1:

Eb|--------5--3--3--3--3--0--0--0--5--5--8--
Bb|-----5-----3--3--3--3--0--1--3--5--5--6--
Gb|--7--7--7--5--5--5--5--2--2--2--7--7--7--
Db|--7--7--7--3--3--3--3--2--2--2--5--5--5--
Ab|--5--5--5--3--3--3--3--0--0--0--5--5--5--
Db|-----------3--3--3--3--0--0--0--5--5--5--

Stave 2:

Eb|--10--9--
Bb|--8---8--
Gb|--9---9--
Db|--7---7--
Ab|--7---7--
Db|--7---7--

Stave 3:

Eb|--0--0--0--0--5--5--8--5--
Bb|--7--7--7--7--6--6--6--6--
Gb|--7--7--7--7--7--7--7--7--
Db|--0--0--0--0--0--0--0--0--
Ab|--0--0--0--0--0--0--0--0--
Db|--0--0--0--0--0--0--0--0--

Stave 4:

Eb|--10--8--5--
Bb|--8---6--6--
Gb|--9---7--7--
Db|--7---5--5--
Ab|--7---5--5--
Db|--7---5--5--

http://www.guitartabcreator.com
Guitar Tab Creator is intended to store guitar tab created through the tool. It currently does not support in-line text editing. Any text you place in here will be lost. If you need to comment on your tab, please use the "Tab Notes" section located below.