Sound will begin in 5 seconds

MeanScores_chords

Chords
01234567891011121314151617181920212223
E
B
G
D
A
E
B
0 1 2 3 4 5 6 7 8 9 10 11 12 13 14 15 16 17 18 19 20 21 22 23
Song Science #1: How Pros Use 6 Chords to Write Hit Songs
(/) Slide Up  (\) Slide Down  (h) Hammer On  (p) Pull Off  (b) Bend (r) Release (v) Vibrato

Stave 1:

Eb|----------------
Bb|----------------
Gb|--6--6--11--12--
Db|--6--7--11--10--
Ab|--4--5--9---8---
Db|----------------

Stave 2:

Eb|----------------
Bb|------------13--
Gb|--6--6--11------
Db|--6--7--11------
Ab|--4--5--9---13--
Db|----------------

Stave 3:

Eb|------------
Bb|------------
Gb|--12b---13--
Db|--------11--
Ab|--10----11--
Db|--------11--

Stave 4:

Eb|--5-----------11--
Bb|--8-----------14--
Gb|--7-----------13--
Db|--5--3h5--3h5/11--
Ab|--5--3-5--3-5-11--
Db|--5--3-5--3-5-11--

Stave 5:

Eb|----------------
Bb|----------------
Gb|----------------
Db|--10--13--7--8--
Ab|--8---11--5--6--
Db|--8---11--5--6--

Stave 6:

Eb|------------------
Bb|----------10--11--
Gb|------------------
Db|--10--13----------
Ab|--8---11--10--11--
Db|--8---11----------

Stave 7:

Eb|-----------
Bb|-----------
Gb|-----------
Db|--5--3--5--
Ab|--5--3--5--
Db|--5--3--5--

http://www.guitartabcreator.com
Guitar Tab Creator is intended to store guitar tab created through the tool. It currently does not support in-line text editing. Any text you place in here will be lost. If you need to comment on your tab, please use the "Tab Notes" section located below.