Sound will begin in 5 seconds

Fortsätt göra fel tills det blir rätt - Knivderby

Chords
01234567891011121314151617181920212223
E
B
G
D
A
E
B
0 1 2 3 4 5 6 7 8 9 10 11 12 13 14 15 16 17 18 19 20 21 22 23
Song Science #1: How Pros Use 6 Chords to Write Hit Songs
(/) Slide Up  (\) Slide Down  (h) Hammer On  (p) Pull Off  (b) Bend (r) Release (v) Vibrato

Stave 1:

E|--------------------------------------------
B|--------------------------------------------
G|--------------------------------------------
D|--2--2--4--2--2--4--2--2--4--2--4--5--4--2--
A|--------------------------------------------
E|--------------------------------------------

Stave 2:

E|-----------------
B|-----------------
G|-----5-----7--5--
D|-----5--5--7--5--
A|-----3--5--5--3--
E|--------3--------

Stave 3:

E|--------
B|--------
G|--------
D|--5--3--
A|--5--3--
E|--3--1--

Stave 4:

E|------------------------------------------------------
B|------------------------------------------------------
G|--10--7--9--------------------------------------------
D|--10--7--9--2--2--4--2--2--4--2--2--4--2--4--5--4--2--
A|--8---5--7--------------------------------------------
E|------------------------------------------------------

Stave 5:

E|--8--5--12--10--12--10--8--5-----8--5--8--5--12--10r12--8--4--
B|--------------------------------------------------------------
G|--------------------------------------------------------------
D|--------------------------------------------------------------
A|--------------------------------------------------------------
E|--------------------------------------------------------------

Stave 6:

E|------------------
B|------------------
G|--10--9--7--5--1--
D|------------------
A|--8---7--5--3--0--
E|------------------

http://www.guitartabcreator.com
Guitar Tab Creator is intended to store guitar tab created through the tool. It currently does not support in-line text editing. Any text you place in here will be lost. If you need to comment on your tab, please use the "Tab Notes" section located below.