Sound will begin in 5 seconds

Marssi

Chords
01234567891011121314151617181920212223
E
B
G
D
A
E
B
0 1 2 3 4 5 6 7 8 9 10 11 12 13 14 15 16 17 18 19 20 21 22 23
Song Science #1: How Pros Use 6 Chords to Write Hit Songs
(/) Slide Up  (\) Slide Down  (h) Hammer On  (p) Pull Off  (b) Bend (r) Release (v) Vibrato

Stave 1:

E|-----------------------------3-----3-----0-----0-----------------------3-----3-----1-----0-----------
B|-----------------------------------------------------------------3-----------------------------3-----
G|-----------------2-----------------------------------------2-----------------------------------------
D|-----------2-----------------------------------------0-----------------------------------------------
A|-----0-----------------------------------------------------------------------------------------------
E|-----------------------------------------------------------------------------------------------------

Stave 2:

E|-----------------------------------------------------------------------------------------------------------------------------------------------------------------------------------------------
B|-----------------------------------------------------------------------------------------3-----------------------------------------------------------------------------------------------------
G|-----------------0-----------------------0-----------------2-----------2-----------2-----------------------0-----------------------0-----------------------------------------------------2-----
D|-----------2-----------------------2-----------------3-----------2-----------0-----------------------2-----------------------2-----------------------------------------0-----------2-----------
A|-----3-----------------3-----2-----------------2-----------------------------------------------3-----------------3-----2-----------------2-----------2-----------2-----------0-----------------
E|-----------------------------------------------------------------------------------------------------------------------------------------------0-----------3-----------------------------------

Stave 3:

E|-----------------------------------------------------------------------------------------------------------------------------------------------------------------------------------------------
B|-----------------------------------------------------------------------------------------------------------------------------------------------------------------------------------------------
G|-----2-----2-----2-----2-----5-----5-----5-----9-----9-----9-----9-----2-----2-----2-----2-----2-----2-----2-----2-----5-----5-----5-----5-----------------------------------------------2-----
D|-----2-----2-----2-----2-----5-----5-----5-----9-----9-----9-----9-----2-----2-----2-----2-----2-----2-----2-----2-----5-----5-----5-----5-----------------------------0-----------2-----------
A|-----0-----0-----0-----0-----3-----3-----3-----7-----7-----7-----7-----0-----0-----0-----0-----0-----0-----0-----0-----3-----3-----3-----3-----------2-----------2-----------0-----------------
E|-----------------------------------------------------------------------------------------------------------------------------------------------0-----------3-----------------------------------

Stave 4:

E|-----------------------------------------------------------------------------------------------------------------------------------------------------------------------------------------------------
B|-----------------------------------------------------------------------------------------------------------------------------------------------------------------------------------------------------
G|-----2-----2-----2-----2-----------------------------5-----5-----5-----5-----------------------------2-----2-----2-----2-----------------------------------------------------------------------2-----
D|-----2-----2-----2-----2-----5-----5-----5-----5-----5-----5-----5-----5-----2-----2-----2-----2-----2-----2-----2-----2-----5-----5-----5-----5-----------------------------0-----------2-----------
A|-----0-----0-----0-----0-----5-----5-----5-----5-----3-----3-----3-----3-----2-----2-----2-----2-----0-----0-----0-----0-----5-----5-----5-----5-----------2-----------2-----------0-----------------
E|-----------------------------3-----3-----3-----3-----------------------------0-----0-----0-----0-----------------------------3-----3-----3-----3-----0-----------3-----------------------------------

Stave 5:

E|-------------------------------------------------------------------------------------------------------------------------------------------------------------------------------------------------------------
B|-------------------------------------------------------------------------------------------------------------------------------------------------------------------------------------------------------------
G|-----14-----14-----14-----9-----10-----10-----10-----10-----7-----7-----7-----10-----9-----9-----9-----9-----2-----2-----2-----5-----7-----7-----7-----7-----------------------------------------------2-----
D|-----14-----14-----14-----9-----10-----10-----10-----10-----7-----7-----7-----10-----9-----9-----9-----9-----2-----2-----2-----5-----7-----7-----7-----7-----------------------------0-----------2-----------
A|-----12-----12-----12-----7-----8------8------8------8------5-----5-----5-----8------7-----7-----7-----7-----0-----0-----0-----3-----5-----5-----5-----5-----------2-----------2-----------0-----------------
E|-------------------------------------------------------------------------------------------------------------------------------------------------------------0-----------3-----------------------------------

http://www.guitartabcreator.com
Guitar Tab Creator is intended to store guitar tab created through the tool. It currently does not support in-line text editing. Any text you place in here will be lost. If you need to comment on your tab, please use the "Tab Notes" section located below.