Sound will begin in 5 seconds

Bonetrousle

01234567891011121314151617181920212223
E
B
G
D
A
E
B
0 1 2 3 4 5 6 7 8 9 10 11 12 13 14 15 16 17 18 19 20 21 22 23
Song Science #1: How Pros Use 6 Chords to Write Hit Songs
(/) Slide Up  (\) Slide Down  (h) Hammer On  (p) Pull Off  (b) Bend (r) Release (v) Vibrato

Stave 1:

E|-----------------|-----------------------|-----------------------|--------------|--------------6--|--
A|--------3--6--3--|--2--3--5--3-----------|-----------------------|--------------|--------3--6-----|--
D|-----5-----------|--------------5--------|--0--1--4--5--1--------|--------0-----|-----5-----------|--
G|--5--------------|-----------------8--5--|-----------------5--2--|--4--5-----5--|--5--------------|--

Stave 2:

E|--5--3--5--6--------|-----------------------|--------------------|--
A|--------------6--3--|--2--3--5--6--3--------|--2--0--2--0--2--3--|--
D|--------------------|-----------------5--1--|--------------------|--
G|--------------------|-----------------------|--------------------|--

Stave 3:

E|-----------1-----|-----------------------|-----------------8--6--4--|--3--4--3--1--3--|--
A|--------3-----3--|--2--3--5--2-----2--5--|--6--8--6--5--3-----------|-----------------|--
D|--3--6-----------|--------------5--------|--------------------------|-----------------|--
G|-----------------|-----------------------|--------------------------|-----------------|--

http://www.guitartabcreator.com
Guitar Tab Creator is intended to store guitar tab created through the tool. It currently does not support in-line text editing. Any text you place in here will be lost. If you need to comment on your tab, please use the "Tab Notes" section located below.