Sound will begin in 5 seconds

All That Remains

Chords
01234567891011121314151617181920212223
E
B
G
D
A
E
B
0 1 2 3 4 5 6 7 8 9 10 11 12 13 14 15 16 17 18 19 20 21 22 23
Song Science #1: How Pros Use 6 Chords to Write Hit Songs
(/) Slide Up  (\) Slide Down  (h) Hammer On  (p) Pull Off  (b) Bend (r) Release (v) Vibrato

Stave 1:

E|---------------------------------------------------------
B|---------------------------------------------------------
G|---------------------------------------------------------
D|---------------------------------------------------------
A|-----------------------------------------------------12--
D|--12--12--12--7--7--7--8--8--8--3--3--3--5--3--2--0--12--

Stave 2:

E|-----------------------------------------------------
B|-----------------------------------------------------
G|-----------------------------------------------------
D|-----------------------------------------------------
A|-----------------------------------------------------
D|--12--12--12--7--7--7--8--8--8--3--3--3--7--7--7--7--

Stave 3:

E|-----------------------------------------------------
B|-----------------------------------------------------
G|-----------------------------------------------------
D|-----------------------------------------------------
A|-----------------------------------------------------
D|--12--12--12--7--7--7--8--8--3--------2--------1-----

Stave 4:

E|-----------------------------------------------------
B|-----------------------------------------------------
G|-----------------------------------------------------
D|-----------------------------------------------------
A|--------------------3--------1-----------3--4--5-----
D|--0--3--5--0-----0-----5--0-----3--2--0-----------0--

Stave 5:

E|-----------------------------------------------------------------------------------------------
B|-----------------------------------------------------------------------------------------------
G|-----------------------------------------------------------------------------------------------
D|-----------------------------------------------------------------------------------------------
A|-----------------------------------------------------------------------------------------------
D|--0--0-----0--0-----3-----0--0-----0--0-----6-----0--0-----0--3--6--5--------5--5--5--3--2--0--

Stave 6:

E|-----------------------------------------------------------------------------------------------
B|-----------------------------------------------------------------------------------------------
G|-----------------------------------------------------------------------------------------------
D|-----------------3-----------------------------------------------------------------------------
A|--------------5-----3--------3--3--3--3--3-----------------------------------------------------
D|--0--0-----0--------------------------------5--------5--5--5--3--5--5-----3--5--6-----3--5--0--

Stave 7:

E|-----------------------------------------------------------------------------------------------
B|-----------------------------------------------------------------------------------------------
G|-----------------------------------------------------------------------------------------------
D|-----------------------------------------------------------------------------------------------
A|-----------------------------------------------------------------------------------------------
D|--0--0-----0--0-----3-----0--0-----0--0-----6-----0--0-----0--3--6--3--------------1--------7--

Stave 8:

E|--------
B|--------
G|--------
D|--------
A|--------
D|--7--7--

http://www.guitartabcreator.com
Guitar Tab Creator is intended to store guitar tab created through the tool. It currently does not support in-line text editing. Any text you place in here will be lost. If you need to comment on your tab, please use the "Tab Notes" section located below.